  0
SECTION
  2
HEADER
  9
$ACADVER
  1
AC1015
  9
$ACADMAINTVER
 70
     6
  9
$DWGCODEPAGE
  3
ANSI_932
  9
$INSBASE
 10
0.0
 20
0.0
 30
0.0
  9
$EXTMIN
 10
4.212835
 20
8.29579
 30
1.000000E+20
  9
$EXTMAX
 10
204.631437
 20
288.017045
 30
-1.000000E+20
  9
$LIMMIN
 10
4.212835
 20
8.29579
  9
$LIMMAX
 10
204.631437
 20
288.017045
  9
$ORTHOMODE
 70
     0
  9
$REGENMODE
 70
     1
  9
$FILLMODE
 70
     1
  9
$QTEXTMODE
 70
     0
  9
$MIRRTEXT
 70
     1
  9
$LTSCALE
 40
1.0
  9
$ATTMODE
 70
     1
  9
$TEXTSIZE
 40
0.2
  9
$TRACEWID
 40
0.05
  9
$TEXTSTYLE
  7
Standard
  9
$CLAYER
  8
0
  9
$CELTYPE
  6
Continuous
  9
$CECOLOR
 62
   256
  9
$CELTSCALE
 40
1.0
  9
$DISPSILH
 70
     0
  9
$DIMSCALE
 40
1.0
  9
$DIMASZ
 40
0.18
  9
$DIMEXO
 40
0.0625
  9
$DIMDLI
 40
0.38
  9
$DIMRND
 40
0.0
  9
$DIMDLE
 40
0.0
  9
$DIMEXE
 40
0.18
  9
$DIMTP
 40
0.0
  9
$DIMTM
 40
0.0
  9
$DIMTXT
 40
0.18
  9
$DIMCEN
 40
0.09
  9
$DIMTSZ
 40
0.0
  9
$DIMTOL
 70
     0
  9
$DIMLIM
 70
     0
  9
$DIMTIH
 70
     1
  9
$DIMTOH
 70
     1
  9
$DIMSE1
 70
     0
  9
$DIMSE2
 70
     0
  9
$DIMTAD
 70
     0
  9
$DIMZIN
 70
     0
  9
$DIMBLK
  1

  9
$DIMASO
 70
     1
  9
$DIMSHO
 70
     1
  9
$DIMPOST
  1

  9
$DIMAPOST
  1

  9
$DIMALT
 70
     0
  9
$DIMALTD
 70
     2
  9
$DIMALTF
 40
25.4
  9
$DIMLFAC
 40
1.0
  9
$DIMTOFL
 70
     0
  9
$DIMTVP
 40
0.0
  9
$DIMTIX
 70
     0
  9
$DIMSOXD
 70
     0
  9
$DIMSAH
 70
     0
  9
$DIMBLK1
  1

  9
$DIMBLK2
  1

  9
$DIMSTYLE
  2
Standard
  9
$DIMCLRD
 70
     0
  9
$DIMCLRE
 70
     0
  9
$DIMCLRT
 70
     0
  9
$DIMTFAC
 40
1.0
  9
$DIMGAP
 40
0.09
  9
$DIMJUST
 70
     0
  9
$DIMSD1
 70
     0
  9
$DIMSD2
 70
     0
  9
$DIMTOLJ
 70
     1
  9
$DIMTZIN
 70
     0
  9
$DIMALTZ
 70
     0
  9
$DIMALTTZ
 70
     0
  9
$DIMUPT
 70
     0
  9
$DIMDEC
 70
     4
  9
$DIMTDEC
 70
     4
  9
$DIMALTU
 70
     2
  9
$DIMALTTD
 70
     2
  9
$DIMTXSTY
  7
Standard
  9
$DIMAUNIT
 70
     0
  9
$DIMADEC
 70
     0
  9
$DIMALTRND
 40
0.0
  9
$DIMAZIN
 70
     0
  9
$DIMDSEP
 70
     0
  9
$DIMATFIT
 70
     3
  9
$DIMFRAC
 70
     0
  9
$DIMLDRBLK
  1

  9
$DIMLUNIT
 70
     2
  9
$DIMLWD
 70
     0
  9
$DIMLWE
 70
     0
  9
$DIMTMOVE
 70
     0
  9
$LUNITS
 70
     2
  9
$LUPREC
 70
     4
  9
$SKETCHINC
 40
0.1
  9
$FILLETRAD
 40
0.0
  9
$AUNITS
 70
     0
  9
$AUPREC
 70
     0
  9
$MENU
  1
acad
  9
$ELEVATION
 40
0.0
  9
$PELEVATION
 40
0.0
  9
$THICKNESS
 40
0.0
  9
$LIMCHECK
 70
     0
  9
$CHAMFERA
 40
0.0
  9
$CHAMFERB
 40
0.0
  9
$CHAMFERC
 40
0.0
  9
$CHAMFERD
 40
0.0
  9
$SKPOLY
 70
     0
  9
$TDCREATE
 40
0.000000000
  9
$TDUCREATE
 40
0.000000000
  9
$TDUPDATE
 40
0.000000000
  9
$TDUUPDATE
 40
0.000000000
  9
$TDINDWG
 40
0.0000000000
  9
$TDUSRTIMER
 40
0.0000000000
  9
$USRTIMER
 70
     1
  9
$ANGBASE
 50
0.0
  9
$ANGDIR
 70
     0
  9
$PDMODE
 70
     0
  9
$PDSIZE
 40
0.0
  9
$PLINEWID
 40
0.0
  9
$SPLFRAME
 70
     0
  9
$SPLINETYPE
 70
     6
  9
$SPLINESEGS
 70
     8
  9
$HANDSEED
  5
2AC
  9
$SURFTAB1
 70
     6
  9
$SURFTAB2
 70
     6
  9
$SURFTYPE
 70
     6
  9
$SURFU
 70
     6
  9
$SURFV
 70
     6
  9
$UCSBASE
  2

  9
$UCSNAME
  2

  9
$UCSORG
 10
0.0
 20
0.0
 30
0.0
  9
$UCSXDIR
 10
1.0
 20
0.0
 30
0.0
  9
$UCSYDIR
 10
0.0
 20
1.0
 30
0.0
  9
$UCSORTHOREF
  2

  9
$UCSORTHOVIEW
 70
     0
  9
$UCSORGTOP
 10
0.0
 20
0.0
 30
0.0
  9
$UCSORGBOTTOM
 10
0.0
 20
0.0
 30
0.0
  9
$UCSORGLEFT
 10
0.0
 20
0.0
 30
0.0
  9
$UCSORGRIGHT
 10
0.0
 20
0.0
 30
0.0
  9
$UCSORGFRONT
 10
0.0
 20
0.0
 30
0.0
  9
$UCSORGBACK
 10
0.0
 20
0.0
 30
0.0
  9
$PUCSBASE
  2

  9
$PUCSNAME
  2

  9
$PUCSORG
 10
0.0
 20
0.0
 30
0.0
  9
$PUCSXDIR
 10
1.0
 20
0.0
 30
0.0
  9
$PUCSYDIR
 10
0.0
 20
1.0
 30
0.0
  9
$PUCSORTHOREF
  2

  9
$PUCSORTHOVIEW
 70
     0
  9
$PUCSORGTOP
 10
0.0
 20
0.0
 30
0.0
  9
$PUCSORGBOTTOM
 10
0.0
 20
0.0
 30
0.0
  9
$PUCSORGLEFT
 10
0.0
 20
0.0
 30
0.0
  9
$PUCSORGRIGHT
 10
0.0
 20
0.0
 30
0.0
  9
$PUCSORGFRONT
 10
0.0
 20
0.0
 30
0.0
  9
$PUCSORGBACK
 10
0.0
 20
0.0
 30
0.0
  9
$USERI1
 70
     0
  9
$USERI2
 70
     0
  9
$USERI3
 70
     0
  9
$USERI4
 70
     0
  9
$USERI5
 70
     0
  9
$USERR1
 40
0.0
  9
$USERR2
 40
0.0
  9
$USERR3
 40
0.0
  9
$USERR4
 40
0.0
  9
$USERR5
 40
0.0
  9
$WORLDVIEW
 70
     1
  9
$SHADEDGE
 70
     3
  9
$SHADEDIF
 70
    70
  9
$TILEMODE
 70
     1
  9
$MAXACTVP
 70
    16
  9
$PINSBASE
 10
0.0
 20
0.0
 30
0.0
  9
$PLIMCHECK
 70
     0
  9
$PEXTMIN
 10
1.000000E+20
 20
1.000000E+20
 30
1.000000E+20
  9
$PEXTMAX
 10
-1.000000E+20
 20
-1.000000E+20
 30
-1.000000E+20
  9
$PLIMMIN
 10
0.0
 20
0.0
  9
$PLIMMAX
 10
12.0
 20
9.0
  9
$UNITMODE
 70
     0
  9
$VISRETAIN
 70
     0
  9
$PLINEGEN
 70
     1
  9
$PSLTSCALE
 70
     0
  9
$TREEDEPTH
 70
  3020
  9
$CMLSTYLE
  2
Standard
  9
$CMLJUST
 70
     0
  9
$CMLSCALE
 40
1.0
  9
$PROXYGRAPHICS
 70
     0
  9
$MEASUREMENT
 70
     0
  9
$CELWEIGHT
370
     0
  9
$ENDCAPS
280
     0
  9
$JOINSTYLE
280
     0
  9
$LWDISPLAY
290
     0
  9
$INSUNITS
 70
     0
  9
$HYPERLINKBASE
  1

  9
$XEDIT
290
     1
  9
$CEPSNTYPE
380
     0
  9
$PSTYLEMODE
290
     1
  9
$FINGERPRINTGUID
  2

  9
$VERSIONGUID
  2

  9
$EXTNAMES
290
     1
  9
$PSVPSCALE
 40
0.0
  0
ENDSEC
  0
SECTION
  2
CLASSES
  0
CLASS
  1
LWPOLYLINE
  2
AcDbPolyline
  3
"AutoCAD"
 90
        0
280
     0
281
     1
  0
CLASS
  1
IMAGE
  2
AcDbRasterImage
  3
ISM
 90
      127
280
     0
281
     1
  0
CLASS
  1
OLE2FRAME
  2
AcDbOle2Frame
  3
""
 90
        0
280
     0
281
     1
  0
CLASS
  1
HATCH
  2
AcDbHatch
  3
"ACAD_SEDONA"
 90
        0
280
     0
281
     1
  0
CLASS
  1
DICTIONARYVAR
  2
AcDbDictionaryVar
  3
"AutoCAD"
 90
        0
280
     0
281
     0
  0
CLASS
  1
RASTERVARIABLES
  2
AcDbRasterVariables
  3
ISM
 90
        0
280
     0
281
     0
  0
CLASS
  1
IMAGEDEF
  2
AcDbRasterImageDef
  3
ISM
 90
        0
280
     0
281
     0
  0
CLASS
  1
IMAGEDEF_REACTOR
  2
AcDbRasterImageDefReactor
  3
ISM
 90
        1
280
     0
281
     0
  0
CLASS
  1
IDBUFFER
  2
AcDbIdBuffer
  3
"Acad"
 90
        0
280
     0
281
     0
  0
CLASS
  1
SPATIAL_FILTER
  2
AcDbSpatialFilter
  3
"Acad"
 90
        0
280
     0
281
     0
  0
CLASS
  1
XRECORD
  2
AcDbXrecord
  3
"<Built In>"
 90
        0
280
     0
281
     0
  0
CLASS
  1
SORTENTSTABLE
  2
AcDbSortentsTable
  3
"AutoCAD"
 90
        0
280
     0
281
     0
  0
CLASS
  1
LAYER_INDEX
  2
AcDbLayerIndex
  3
"Acad"
 90
        0
280
     0
281
     0
  0
CLASS
  1
SPATIAL_INDEX
  2
AcDbSpatialIndex
  3
"Acad"
 90
        0
280
     0
281
     0
  0
CLASS
  1
OBJECT_PTR
  2
CAseDLPNTableRecord
  3
"ASE-LPNTableRecord"
 90
        1
280
     0
281
     0
  0
CLASS
  1
LAYOUT
  2
AcDbLayout
  3
"AutoCAD 2000"
 90
        1
280
     0
281
     0
  0
CLASS
  1
PLOTSETTINGS
  2
AcDbPlotSettings
  3
"AutoCAD 2000"
 90
        1
280
     0
281
     0
  0
CLASS
  1
ACDBDICTIONARYWDFLT
  2
AcDbDictionaryWithDefault
  3
"AutoCAD 2000"
 90
        1
280
     0
281
     0
  0
CLASS
  1
ACDBPLACEHOLDER
  2
AcDbPlaceHolder
  3
"AutoCAD 2000"
 90
        1
280
     0
281
     0
  0
CLASS
  1
VBA_PROJECT
  2
AcDbVbaProject
  3
"acadvba"
 90
        1
280
     0
281
     0
  0
CLASS
  1
WIPEOUT
  2
AcDbWipeout
  3
WipeOut|AutoCAD Express Tool|expresstools@autodesk.com
 90
      127
280
     0
281
     1
  0
CLASS
  1
WIPEOUTVARIABLES
  2
AcDbWipeoutVariables
  3
WipeOut|AutoCAD Express Tool|expresstools@autodesk.com
 90
        0
280
     0
281
     0
  0
CLASS
  1
RTEXT
  2
RText
  3
RText|AutoCAD Express Tool|expresstools@autodesk.com
 90
        0
280
     0
281
     1
  0
CLASS
  1
ARCALIGNEDTEXT
  2
AcDbArcAlignedText
  3
ATEXT|AutoCAD Express Tool|expresstools@autodesk.com
 90
        0
280
     0
281
     1
  0
ENDSEC
  0
SECTION
  2
TABLES
  0
TABLE
  2
VPORT
  5
7
100
AcDbSymbolTable
 70
     1
  0
VPORT
  5
15
100
AcDbSymbolTableRecord
100
AcDbViewportTableRecord
  2
*ACTIVE
 70
     0
 10
0.0
 20
0.0
 11
1.0
 21
1.0
 12
6.591288
 22
4.579184
 13
0.0
 23
0.0
 14
1.0
 24
1.0
 15
0.0
 25
0.0
 16
0.0
 26
0.0
 36
1.0
 17
0.0
 27
0.0
 37
0.0
 40
9.158369
 41
0.688564
 42
50.0
 43
0.0
 44
0.0
 50
0.0
 51
0.0
 71
     0
 72
   100
 73
     1
 74
     1
 75
     0
 76
     0
 77
     0
 78
     0
281
     0
 65
     0
110
0.0
120
0.0
130
0.0
111
1.0
121
0.0
131
0.0
112
0.0
122
1.0
132
0.0
345
0
346
0
 79
     0
146
0.0
  0
ENDTAB
  0
TABLE
  2
LTYPE
  5
4
100
AcDbSymbolTable
 70
     3
  0
LTYPE
  5
11
100
AcDbSymbolTableRecord
100
AcDbLinetypeTableRecord
  2
ByBlock
 70
    64
  3

 72
    65
 73
     0
 40
0.0
  0
LTYPE
  5
12
100
AcDbSymbolTableRecord
100
AcDbLinetypeTableRecord
  2
ByLayer
 70
    64
  3

 72
    65
 73
     0
 40
0.0
  0
LTYPE
  5
13
100
AcDbSymbolTableRecord
100
AcDbLinetypeTableRecord
  2
Continuous
 70
    64
  3
Solid line
 72
    65
 73
     0
 40
0.0
  0
ENDTAB
  0
TABLE
  2
LAYER
  5
2
100
AcDbSymbolTable
 70
    10
  0
LAYER
  5
14
100
AcDbSymbolTableRecord
100
AcDbLayerTableRecord
  2
0
 70
     0
 62
     7
  6
Continuous
290
     1
370
    -3
390
1D
  0
LAYER
  5
28
100
AcDbSymbolTableRecord
100
AcDbLayerTableRecord
  2
レイヤー_1
 70
     0
 62
   160
  6
Continuous
290
     1
370
    -3
390
1F
  0
LAYER
  5
29
100
AcDbSymbolTableRecord
100
AcDbLayerTableRecord
  2
0
 70
     0
 62
     7
  6
Continuous
290
     1
370
    -3
390
1F
  0
LAYER
  5
10C
100
AcDbSymbolTableRecord
100
AcDbLayerTableRecord
  2
レイヤー_1_0
 70
     0
 62
   160
  6
Continuous
290
     1
370
    -3
390
1F
  0
LAYER
  5
10D
100
AcDbSymbolTableRecord
100
AcDbLayerTableRecord
  2
レイヤー_1_0_0
 70
     0
 62
   160
  6
Continuous
290
     1
370
    -3
390
1F
  0
LAYER
  5
10E
100
AcDbSymbolTableRecord
100
AcDbLayerTableRecord
  2
レイヤー_1_0_0_0
 70
     0
 62
   160
  6
Continuous
290
     1
370
    -3
390
1F
  0
LAYER
  5
10F
100
AcDbSymbolTableRecord
100
AcDbLayerTableRecord
  2
レイヤー_1_0_0_0_0
 70
     0
 62
   160
  6
Continuous
290
     1
370
    -3
390
1F
  0
LAYER
  5
110
100
AcDbSymbolTableRecord
100
AcDbLayerTableRecord
  2
レイヤー_1_0_0_0_0_0
 70
     0
 62
   160
  6
Continuous
290
     1
370
    -3
390
1F
  0
LAYER
  5
111
100
AcDbSymbolTableRecord
100
AcDbLayerTableRecord
  2
A
 70
     0
 62
     7
  6
Continuous
290
     1
370
    -3
390
1F
  0
LAYER
  5
2AB
100
AcDbSymbolTableRecord
100
AcDbLayerTableRecord
  2
B
 70
     0
 62
     7
  6
Continuous
290
     1
370
    -3
390
1F
  0
ENDTAB
  0
TABLE
  2
STYLE
  5
3
100
AcDbSymbolTable
 70
     5
  0
STYLE
  5
17
100
AcDbSymbolTableRecord
100
AcDbTextStyleTableRecord
  2
Standard
 70
     0
 40
0.0
 41
1.0
 50
0.0
 71
     0
 42
0.0
  3
txt
  4

  0
STYLE
  5
24
100
AcDbSymbolTableRecord
100
AcDbTextStyleTableRecord
  2
STD
 70
     0
 40
0.0
 41
1.0
 50
0.0
 71
     0
 42
0.0
  3
txt
  4

  0
STYLE
  5
25
100
AcDbSymbolTableRecord
100
AcDbTextStyleTableRecord
  2
TATESTD
 70
     4
 40
0.0
 41
1.0
 50
0.0
 71
     0
 42
0.0
  3
txt
  4

  0
STYLE
  5
26
100
AcDbSymbolTableRecord
100
AcDbTextStyleTableRecord
  2
KANJISTD
 70
     0
 40
0.0
 41
1.0
 50
0.0
 71
     0
 42
0.0
  3
txt
  4
extfont
  0
STYLE
  5
27
100
AcDbSymbolTableRecord
100
AcDbTextStyleTableRecord
  2
KANJITATE
 70
     4
 40
0.0
 41
1.0
 50
0.0
 71
     0
 42
0.0
  3
txt
  4
extfont
  0
ENDTAB
  0
TABLE
  2
VIEW
  5
5
100
AcDbSymbolTable
 70
     0
  0
ENDTAB
  0
TABLE
  2
UCS
  5
6
100
AcDbSymbolTable
 70
     0
  0
ENDTAB
  0
TABLE
  2
APPID
  5
8
100
AcDbSymbolTable
 70
     1
  0
APPID
  5
16
100
AcDbSymbolTableRecord
100
AcDbRegAppTableRecord
  2
ACAD
 70
     0
  0
ENDTAB
  0
TABLE
  2
DIMSTYLE
  5
9
100
AcDbSymbolTable
 70
     1
100
AcDbDimStyleTable
 71
     0
  0
DIMSTYLE
105
18
100
AcDbSymbolTableRecord
100
AcDbDimStyleTableRecord
  2
Standard
 70
     0
  3

  4

 40
1.0
 41
0.18
 42
0.0625
 43
0.38
 44
0.18
 45
0.0
 46
0.0
 47
0.0
 48
0.0
 71
     0
 72
     0
 73
     1
 74
     1
 75
     0
 76
     0
 77
     0
 78
     0
 79
     0
140
0.18
141
0.09
142
0.0
143
25.4
144
1.0
145
0.0
146
1.0
147
0.09
148
0.0
170
     0
171
     2
172
     0
173
     0
174
     0
175
     0
176
     0
177
     0
178
     0
179
     0
271
     4
272
     4
273
     2
274
     2
275
     0
276
     0
277
     2
278
    46
279
     0
280
     0
281
     0
282
     0
283
     1
284
     0
285
     0
286
     0
288
     0
340
17
341
0
342
0
343
0
344
0
371
    -2
372
    -2
  0
ENDTAB
  0
TABLE
  2
BLOCK_RECORD
  5
1
100
AcDbSymbolTable
 70
    14
  0
BLOCK_RECORD
  5
A
100
AcDbSymbolTableRecord
100
AcDbBlockTableRecord
  2
*MODEL_SPACE
340
20
  0
BLOCK_RECORD
  5
B
100
AcDbSymbolTableRecord
100
AcDbBlockTableRecord
  2
*PAPER_SPACE
340
21
  0
BLOCK_RECORD
  5
E8
100
AcDbSymbolTableRecord
100
AcDbBlockTableRecord
  2
AI9-BLK1
340
0
  0
BLOCK_RECORD
  5
117
100
AcDbSymbolTableRecord
100
AcDbBlockTableRecord
  2
AI9-BLK2
340
0
  0
BLOCK_RECORD
  5
122
100
AcDbSymbolTableRecord
100
AcDbBlockTableRecord
  2
AI9-BLK3
340
0
  0
BLOCK_RECORD
  5
12B
100
AcDbSymbolTableRecord
100
AcDbBlockTableRecord
  2
AI9-BLK4
340
0
  0
BLOCK_RECORD
  5
138
100
AcDbSymbolTableRecord
100
AcDbBlockTableRecord
  2
AI9-BLK5
340
0
  0
BLOCK_RECORD
  5
148
100
AcDbSymbolTableRecord
100
AcDbBlockTableRecord
  2
AI9-BLK6
340
0
  0
BLOCK_RECORD
  5
1E1
100
AcDbSymbolTableRecord
100
AcDbBlockTableRecord
  2
AI9-BLK7
340
0
  0
BLOCK_RECORD
  5
1F7
100
AcDbSymbolTableRecord
100
AcDbBlockTableRecord
  2
AI9-BLK8
340
0
  0
BLOCK_RECORD
  5
209
100
AcDbSymbolTableRecord
100
AcDbBlockTableRecord
  2
AI9-BLK9
340
0
  0
BLOCK_RECORD
  5
21B
100
AcDbSymbolTableRecord
100
AcDbBlockTableRecord
  2
AI9-BLK10
340
0
  0
BLOCK_RECORD
  5
270
100
AcDbSymbolTableRecord
100
AcDbBlockTableRecord
  2
AI9-BLK11
340
0
  0
BLOCK_RECORD
  5
27F
100
AcDbSymbolTableRecord
100
AcDbBlockTableRecord
  2
AI9-BLK12
340
0
  0
BLOCK_RECORD
  5
299
100
AcDbSymbolTableRecord
100
AcDbBlockTableRecord
  2
AI9-BLK13
340
0
  0
BLOCK_RECORD
  5
2A3
100
AcDbSymbolTableRecord
100
AcDbBlockTableRecord
  2
AI9-BLK14
340
0
  0
ENDTAB
  0
ENDSEC
  0
SECTION
  2
BLOCKS
  0
BLOCK
  5
D
100
AcDbEntity
  8
0
100
AcDbBlockBegin
  2
*MODEL_SPACE
 70
     0
 10
0.0
 20
0.0
 30
0.0
  3
*MODEL_SPACE
  1

  0
ENDBLK
  5
E
100
AcDbEntity
  8
0
100
AcDbBlockEnd
  0
BLOCK
  5
F
100
AcDbEntity
 67
     1
  8
0
100
AcDbBlockBegin
  2
*PAPER_SPACE
 70
     0
 10
0.0
 20
0.0
 30
0.0
  3
*PAPER_SPACE
  1

  0
ENDBLK
  5
10
100
AcDbEntity
 67
     1
  8
0
100
AcDbBlockEnd
  0
BLOCK
  5
EA
100
AcDbEntity
  8
0
 62
     7
100
AcDbBlockBegin
  2
AI9-BLK1
 70
     0
 10
0.0
 20
0.0
 30
0.0
  3
AI9-BLK1
  1

  0
CIRCLE
  5
EC
100
AcDbEntity
  8
0
 62
     7
100
AcDbCircle
 10
0.0
 20
0.0
 30
0.0
 40
4.694545
  0
CIRCLE
  5
EB
100
AcDbEntity
  8
0
 62
     7
100
AcDbCircle
 10
-0.001034
 20
-0.000345
 30
0.0
 40
4.504032
  0
ENDBLK
  5
ED
100
AcDbEntity
  8
0
100
AcDbBlockEnd
  0
BLOCK
  5
119
100
AcDbEntity
  8
A
 62
     7
100
AcDbBlockBegin
  2
AI9-BLK2
 70
     0
 10
0.0
 20
0.0
 30
0.0
  3
AI9-BLK2
  1

  0
LINE
  5
11C
100
AcDbEntity
  8
A
 62
     7
100
AcDbLine
 10
0.0
 20
2.014003
 30
0.0
 11
0.0
 21
-2.014003
 31
0.0
  0
HATCH
  5
11B
100
AcDbEntity
  8
A
 62
     7
100
AcDbHatch
 10
0.0
 20
0.0
 30
0.0
210
0.0
220
0.0
230
1.0
  2
SOLID
 70
     1
 71
     0
 91
        1
 92
        1
 93
        1
 72
     4
 94
        3
 73
     0
 74
     0
 95
       17
 96
       13
 40
0.0
 40
0.0
 40
0.0
 40
0.0
 40
1.0
 40
1.0
 40
1.0
 40
2.0
 40
2.0
 40
2.0
 40
3.0
 40
3.0
 40
3.0
 40
4.0
 40
4.0
 40
4.0
 40
4.0
 10
0.0
 20
-2.2871988932291663
 10
-0.0692464192708333
 20
-2.1586968315972221
 10
-0.18758544921875
 20
-1.9988444010416664
 10
-0.3129869249131944
 20
-1.9003146701388887
 10
-0.3129869249131944
 20
-1.9003146701388887
 10
0.0
 20
-1.9781738281249999
 10
0.0
 20
-1.9781738281249999
 10
0.0
 20
-1.9781738281249999
 10
0.3129869249131944
 20
-1.9003146701388887
 10
0.3129869249131944
 20
-1.9003146701388887
 10
0.18758544921875
 20
-1.9988444010416664
 10
0.0692464192708333
 20
-2.1586968315972221
 10
0.0
 20
-2.2871988932291663
 97
        0
 75
     0
 76
     1
 98
        1
 10
0.0
 20
0.0
  0
HATCH
  5
11A
100
AcDbEntity
  8
A
 62
     7
100
AcDbHatch
 10
0.0
 20
0.0
 30
0.0
210
0.0
220
0.0
230
1.0
  2
SOLID
 70
     1
 71
     0
 91
        1
 92
        1
 93
        1
 72
     4
 94
        3
 73
     0
 74
     0
 95
       17
 96
       13
 40
0.0
 40
0.0
 40
0.0
 40
0.0
 40
1.0
 40
1.0
 40
1.0
 40
2.0
 40
2.0
 40
2.0
 40
3.0
 40
3.0
 40
3.0
 40
4.0
 40
4.0
 40
4.0
 40
4.0
 10
0.0
 20
2.2871988932291663
 10
0.0692464192708333
 20
2.1586968315972221
 10
0.18758544921875
 20
1.9988444010416664
 10
0.3129869249131944
 20
1.8999701605902777
 10
0.3129869249131944
 20
1.8999701605902777
 10
0.0
 20
1.9778293185763887
 10
0.0
 20
1.9778293185763887
 10
0.0
 20
1.9778293185763887
 10
-0.3129869249131944
 20
1.8999701605902777
 10
-0.3129869249131944
 20
1.8999701605902777
 10
-0.18758544921875
 20
1.9988444010416664
 10
-0.0692464192708333
 20
2.1586968315972221
 10
0.0
 20
2.2871988932291663
 97
        0
 75
     0
 76
     1
 98
        1
 10
0.0
 20
0.0
  0
ENDBLK
  5
11D
100
AcDbEntity
  8
A
100
AcDbBlockEnd
  0
BLOCK
  5
124
100
AcDbEntity
  8
A
 62
     7
100
AcDbBlockBegin
  2
AI9-BLK3
 70
     0
 10
0.0
 20
0.0
 30
0.0
  3
AI9-BLK3
  1

  0
LINE
  5
127
100
AcDbEntity
  8
A
 62
     7
100
AcDbLine
 10
0.0
 20
63.424122
 30
0.0
 11
0.0
 21
-63.424122
 31
0.0
  0
HATCH
  5
126
100
AcDbEntity
  8
A
 62
     7
100
AcDbHatch
 10
0.0
 20
0.0
 30
0.0
210
0.0
220
0.0
230
1.0
  2
SOLID
 70
     1
 71
     0
 91
        1
 92
        1
 93
        1
 72
     4
 94
        3
 73
     0
 74
     0
 95
       17
 96
       13
 40
0.0
 40
0.0
 40
0.0
 40
0.0
 40
1.0
 40
1.0
 40
1.0
 40
2.0
 40
2.0
 40
2.0
 40
3.0
 40
3.0
 40
3.0
 40
4.0
 40
4.0
 40
4.0
 40
4.0
 10
0.0
 20
-63.821341281467006
 10
-0.0692464192708333
 20
-63.634617106119784
 10
-0.18758544921875
 20
-63.402762179904506
 10
-0.3129869249131944
 20
-63.258757188585065
 10
-0.3129869249131944
 20
-63.258757188585065
 10
0.0
 20
-63.372100830078118
 10
0.0
 20
-63.372100830078118
 10
0.0
 20
-63.372100830078118
 10
0.3129869249131944
 20
-63.258757188585065
 10
0.3129869249131944
 20
-63.258757188585065
 10
0.18758544921875
 20
-63.402762179904506
 10
0.0692464192708333
 20
-63.634617106119784
 10
0.0
 20
-63.821341281467006
 97
        0
 75
     0
 76
     1
 98
        1
 10
0.0
 20
0.0
  0
HATCH
  5
125
100
AcDbEntity
  8
A
 62
     7
100
AcDbHatch
 10
0.0
 20
0.0
 30
0.0
210
0.0
220
0.0
230
1.0
  2
SOLID
 70
     1
 71
     0
 91
        1
 92
        1
 93
        1
 72
     4
 94
        3
 73
     0
 74
     0
 95
       17
 96
       13
 40
0.0
 40
0.0
 40
0.0
 40
0.0
 40
1.0
 40
1.0
 40
1.0
 40
2.0
 40
2.0
 40
2.0
 40
3.0
 40
3.0
 40
3.0
 40
4.0
 40
4.0
 40
4.0
 40
4.0
 10
0.0
 20
63.821341281467006
 10
0.0692464192708333
 20
63.634444851345478
 10
0.18758544921875
 20
63.402417670355895
 10
0.3129869249131944
 20
63.258757188585065
 10
0.3129869249131944
 20
63.258757188585065
 10
0.0
 20
63.371928575303812
 10
0.0
 20
63.371928575303812
 10
0.0
 20
63.371928575303812
 10
-0.3129869249131944
 20
63.258757188585065
 10
-0.3129869249131944
 20
63.258757188585065
 10
-0.18758544921875
 20
63.402417670355895
 10
-0.0692464192708333
 20
63.634444851345478
 10
0.0
 20
63.821341281467006
 97
        0
 75
     0
 76
     1
 98
        1
 10
0.0
 20
0.0
  0
ENDBLK
  5
128
100
AcDbEntity
  8
A
100
AcDbBlockEnd
  0
BLOCK
  5
12D
100
AcDbEntity
  8
A
 62
     7
100
AcDbBlockBegin
  2
AI9-BLK4
 70
     0
 10
0.0
 20
0.0
 30
0.0
  3
AI9-BLK4
  1

  0
LINE
  5
130
100
AcDbEntity
  8
A
 62
     7
100
AcDbLine
 10
0.0
 20
2.925058
 30
0.0
 11
0.0
 21
-2.925231
 31
0.0
  0
HATCH
  5
12F
100
AcDbEntity
  8
A
 62
     7
100
AcDbHatch
 10
0.0
 20
0.0
 30
0.0
210
0.0
220
0.0
230
1.0
  2
SOLID
 70
     1
 71
     0
 91
        1
 92
        1
 93
        1
 72
     4
 94
        3
 73
     0
 74
     0
 95
       17
 96
       13
 40
0.0
 40
0.0
 40
0.0
 40
0.0
 40
1.0
 40
1.0
 40
1.0
 40
2.0
 40
2.0
 40
2.0
 40
3.0
 40
3.0
 40
3.0
 40
4.0
 40
4.0
 40
4.0
 40
4.0
 10
0.0
 20
-3.3224500868055551
 10
-0.0692464192708333
 20
-3.1355536566840274
 10
-0.18758544921875
 20
-2.9036987304687498
 10
-0.3129869249131944
 20
-2.759865993923611
 10
-0.3129869249131944
 20
-2.759865993923611
 10
0.0
 20
-2.8732096354166665
 10
0.0
 20
-2.8732096354166665
 10
0.0
 20
-2.8732096354166665
 10
0.3129869249131944
 20
-2.759865993923611
 10
0.3129869249131944
 20
-2.759865993923611
 10
0.18758544921875
 20
-2.9036987304687498
 10
0.0692464192708333
 20
-3.1355536566840274
 10
0.0
 20
-3.3224500868055551
 97
        0
 75
     0
 76
     1
 98
        1
 10
0.0
 20
0.0
  0
HATCH
  5
12E
100
AcDbEntity
  8
A
 62
     7
100
AcDbHatch
 10
0.0
 20
0.0
 30
0.0
210
0.0
220
0.0
230
1.0
  2
SOLID
 70
     1
 71
     0
 91
        1
 92
        1
 93
        1
 72
     4
 94
        3
 73
     0
 74
     0
 95
       17
 96
       13
 40
0.0
 40
0.0
 40
0.0
 40
0.0
 40
1.0
 40
1.0
 40
1.0
 40
2.0
 40
2.0
 40
2.0
 40
3.0
 40
3.0
 40
3.0
 40
4.0
 40
4.0
 40
4.0
 40
4.0
 10
0.0
 20
3.3224500868055551
 10
0.0692464192708333
 20
3.1353814019097221
 10
0.18758544921875
 20
2.9035264756944441
 10
0.3129869249131944
 20
2.759865993923611
 10
0.3129869249131944
 20
2.759865993923611
 10
0.0
 20
2.8730373806423608
 10
0.0
 20
2.8730373806423608
 10
0.0
 20
2.8730373806423608
 10
-0.3129869249131944
 20
2.759865993923611
 10
-0.3129869249131944
 20
2.759865993923611
 10
-0.18758544921875
 20
2.9035264756944441
 10
-0.0692464192708333
 20
3.1353814019097221
 10
0.0
 20
3.3224500868055551
 97
        0
 75
     0
 76
     1
 98
        1
 10
0.0
 20
0.0
  0
ENDBLK
  5
131
100
AcDbEntity
  8
A
100
AcDbBlockEnd
  0
BLOCK
  5
13A
100
AcDbEntity
  8
A
 62
     7
100
AcDbBlockBegin
  2
AI9-BLK5
 70
     0
 10
0.0
 20
0.0
 30
0.0
  3
AI9-BLK5
  1

  0
LINE
  5
13D
100
AcDbEntity
  8
A
 62
     7
100
AcDbLine
 10
-11.883426
 20
0.000086
 30
0.0
 11
11.883598
 21
0.000086
 31
0.0
  0
HATCH
  5
13C
100
AcDbEntity
  8
A
 62
     7
100
AcDbHatch
 10
0.0
 20
0.0
 30
0.0
210
0.0
220
0.0
230
1.0
  2
SOLID
 70
     1
 71
     0
 91
        1
 92
        1
 93
        1
 72
     4
 94
        3
 73
     0
 74
     0
 95
       17
 96
       13
 40
0.0
 40
0.0
 40
0.0
 40
0.0
 40
1.0
 40
1.0
 40
1.0
 40
2.0
 40
2.0
 40
2.0
 40
3.0
 40
3.0
 40
3.0
 40
4.0
 40
4.0
 40
4.0
 40
4.0
 10
12.272722032335068
 20
0.0000861273871528
 10
12.089615207248263
 20
-0.0679545084635417
 10
11.862411159939235
 20
-0.1838819715711806
 10
11.721679009331597
 20
-0.3066996256510416
 10
11.721679009331597
 20
-0.3066996256510416
 10
11.832611083984373
 20
0.0000861273871528
 10
11.832611083984373
 20
0.0000861273871528
 10
11.832611083984373
 20
0.0000861273871528
 10
11.721679009331597
 20
0.3066996256510416
 10
11.721679009331597
 20
0.3066996256510416
 10
11.862411159939235
 20
0.1838819715711806
 10
12.089615207248263
 20
0.0679545084635417
 10
12.272722032335068
 20
0.0000861273871528
 97
        0
 75
     0
 76
     1
 98
        1
 10
0.0
 20
0.0
  0
HATCH
  5
13B
100
AcDbEntity
  8
A
 62
     7
100
AcDbHatch
 10
0.0
 20
0.0
 30
0.0
210
0.0
220
0.0
230
1.0
  2
SOLID
 70
     1
 71
     0
 91
        1
 92
        1
 93
        1
 72
     4
 94
        3
 73
     0
 74
     0
 95
       17
 96
       13
 40
0.0
 40
0.0
 40
0.0
 40
0.0
 40
1.0
 40
1.0
 40
1.0
 40
2.0
 40
2.0
 40
2.0
 40
3.0
 40
3.0
 40
3.0
 40
4.0
 40
4.0
 40
4.0
 40
4.0
 10
-12.272722032335068
 20
0.0000861273871528
 10
-12.089615207248263
 20
0.0681267632378472
 10
-11.862238905164929
 20
0.1838819715711806
 10
-11.721506754557291
 20
0.3066996256510416
 10
-11.721506754557291
 20
0.3066996256510416
 10
-11.832438829210068
 20
0.0000861273871528
 10
-11.832438829210068
 20
0.0000861273871528
 10
-11.832438829210068
 20
0.0000861273871528
 10
-11.721506754557291
 20
-0.3066996256510416
 10
-11.721506754557291
 20
-0.3066996256510416
 10
-11.862238905164929
 20
-0.1838819715711806
 10
-12.089615207248263
 20
-0.0677822536892361
 10
-12.272722032335068
 20
0.0000861273871528
 97
        0
 75
     0
 76
     1
 98
        1
 10
0.0
 20
0.0
  0
ENDBLK
  5
13E
100
AcDbEntity
  8
A
100
AcDbBlockEnd
  0
BLOCK
  5
14A
100
AcDbEntity
  8
A
 62
     7
100
AcDbBlockBegin
  2
AI9-BLK6
 70
     0
 10
0.0
 20
0.0
 30
0.0
  3
AI9-BLK6
  1

  0
SPLINE
  5
14C
100
AcDbEntity
  8
A
 62
     7
100
AcDbSpline
210
0.0
220
0.0
230
1.0
 70
     8
 71
     3
 72
    11
 73
     7
 74
     0
 42
0.00000001
 43
0.00000001
 40
0.0
 40
0.0
 40
0.0
 40
0.0
 40
1.0
 40
1.0
 40
1.0
 40
2.0
 40
2.0
 40
2.0
 40
2.0
 10
0.41702880859375
 20
51.612784152560756
 30
0.0
 10
-0.1164442274305556
 20
51.612956407335062
 30
0.0
 10
-0.5477701822916666
 20
52.517810736762151
 30
0.0
 10
-0.5477701822916666
 20
53.633677164713539
 30
0.0
 10
-0.5472534179687499
 20
54.749543592664928
 30
0.0
 10
-0.1142049153645833
 20
55.653364393446175
 30
0.0
 10
0.4192681206597222
 20
55.653192138671869
 30
0.0
  0
SPLINE
  5
14B
100
AcDbEntity
  8
A
 62
     7
100
AcDbSpline
210
0.0
220
0.0
230
1.0
 70
     8
 71
     3
 72
    11
 73
     7
 74
     0
 42
0.00000001
 43
0.00000001
 40
0.0
 40
0.0
 40
0.0
 40
0.0
 40
1.0
 40
1.0
 40
1.0
 40
2.0
 40
2.0
 40
2.0
 40
2.0
 10
0.5460476345486111
 20
-55.653364393446175
 30
0.0
 10
0.0125745985243056
 20
-55.652675374348952
 30
0.0
 10
-0.4194403754340277
 20
-54.747648790147565
 30
0.0
 10
-0.4189236111111111
 20
-53.632815890842011
 30
0.0
 10
-0.4182345920138889
 20
-52.516949462890622
 30
0.0
 10
0.0141248914930556
 20
-51.612267388237839
 30
0.0
 10
0.5477701822916666
 20
-51.612956407335062
 30
0.0
  0
ENDBLK
  5
14D
100
AcDbEntity
  8
A
100
AcDbBlockEnd
  0
BLOCK
  5
1E3
100
AcDbEntity
  8
A
 62
     7
100
AcDbBlockBegin
  2
AI9-BLK7
 70
     0
 10
0.0
 20
0.0
 30
0.0
  3
AI9-BLK7
  1

  0
SPLINE
  5
1F3
100
AcDbEntity
  8
A
 62
     7
100
AcDbSpline
210
0.0
220
0.0
230
1.0
 70
     8
 71
     3
 72
    29
 73
    25
 74
     0
 42
0.00000001
 43
0.00000001
 40
0.0
 40
0.0
 40
0.0
 40
0.0
 40
1.0
 40
1.0
 40
1.0
 40
2.0
 40
2.0
 40
2.0
 40
3.0
 40
3.0
 40
3.0
 40
4.0
 40
4.0
 40
4.0
 40
5.0
 40
5.0
 40
5.0
 40
6.0
 40
6.0
 40
6.0
 40
7.0
 40
7.0
 40
7.0
 40
8.0
 40
8.0
 40
8.0
 40
8.0
 10
4.60376722547743
 20
-20.205312771267359
 30
0.0
 10
5.004259575737847
 20
-20.205312771267359
 30
0.0
 10
5.3287875705295136
 20
-20.529840766059024
 30
0.0
 10
5.3287875705295136
 20
-20.930849880642359
 30
0.0
 10
5.3287875705295136
 20
-20.930849880642359
 30
0.0
 10
5.3287875705295136
 20
-20.930849880642359
 30
0.0
 10
5.3287875705295136
 20
-20.930849880642359
 30
0.0
 10
5.3287875705295136
 20
-21.330480957031249
 30
0.0
 10
5.004259575737847
 20
-21.655008951822914
 30
0.0
 10
4.60376722547743
 20
-21.655008951822914
 30
0.0
 10
4.60376722547743
 20
-21.655008951822914
 30
0.0
 10
-4.6039394802517357
 20
-21.655008951822914
 30
0.0
 10
-4.6039394802517357
 20
-21.655008951822914
 30
0.0
 10
-5.0039150661892355
 20
-21.655008951822914
 30
0.0
 10
-5.3287875705295136
 20
-21.330480957031249
 30
0.0
 10
-5.3287875705295136
 20
-20.930849880642359
 30
0.0
 10
-5.3287875705295136
 20
-20.930849880642359
 30
0.0
 10
-5.3287875705295136
 20
-20.930849880642359
 30
0.0
 10
-5.3287875705295136
 20
-20.930849880642359
 30
0.0
 10
-5.3287875705295136
 20
-20.529840766059024
 30
0.0
 10
-5.0039150661892355
 20
-20.205312771267359
 30
0.0
 10
-4.6039394802517357
 20
-20.205312771267359
 30
0.0
 10
-4.6039394802517357
 20
-20.205312771267359
 30
0.0
 10
4.60376722547743
 20
-20.205312771267359
 30
0.0
 10
4.60376722547743
 20
-20.205312771267359
 30
0.0
  0
SPLINE
  5
1F2
100
AcDbEntity
  8
A
 62
     7
100
AcDbSpline
210
0.0
220
0.0
230
1.0
 70
     8
 71
     3
 72
    29
 73
    25
 74
     0
 42
0.00000001
 43
0.00000001
 40
0.0
 40
0.0
 40
0.0
 40
0.0
 40
1.0
 40
1.0
 40
1.0
 40
2.0
 40
2.0
 40
2.0
 40
3.0
 40
3.0
 40
3.0
 40
4.0
 40
4.0
 40
4.0
 40
5.0
 40
5.0
 40
5.0
 40
6.0
 40
6.0
 40
6.0
 40
7.0
 40
7.0
 40
7.0
 40
8.0
 40
8.0
 40
8.0
 40
8.0
 10
4.60376722547743
 20
-17.477486165364581
 30
0.0
 10
5.004259575737847
 20
-17.477486165364581
 30
0.0
 10
5.3287875705295136
 20
-17.801325141059028
 30
0.0
 10
5.3287875705295136
 20
-18.202334255642359
 30
0.0
 10
5.3287875705295136
 20
-18.202334255642359
 30
0.0
 10
5.3287875705295136
 20
-18.202334255642359
 30
0.0
 10
5.3287875705295136
 20
-18.202334255642359
 30
0.0
 10
5.3287875705295136
 20
-18.602998860677083
 30
0.0
 10
5.004259575737847
 20
-18.926837836371526
 30
0.0
 10
4.60376722547743
 20
-18.926837836371526
 30
0.0
 10
4.60376722547743
 20
-18.926837836371526
 30
0.0
 10
-4.6039394802517357
 20
-18.926837836371526
 30
0.0
 10
-4.6039394802517357
 20
-18.926837836371526
 30
0.0
 10
-5.0039150661892355
 20
-18.926837836371526
 30
0.0
 10
-5.3287875705295136
 20
-18.602998860677083
 30
0.0
 10
-5.3287875705295136
 20
-18.202334255642359
 30
0.0
 10
-5.3287875705295136
 20
-18.202334255642359
 30
0.0
 10
-5.3287875705295136
 20
-18.202334255642359
 30
0.0
 10
-5.3287875705295136
 20
-18.202334255642359
 30
0.0
 10
-5.3287875705295136
 20
-17.801325141059028
 30
0.0
 10
-5.0039150661892355
 20
-17.477486165364581
 30
0.0
 10
-4.6039394802517357
 20
-17.477486165364581
 30
0.0
 10
-4.6039394802517357
 20
-17.477486165364581
 30
0.0
 10
4.60376722547743
 20
-17.477486165364581
 30
0.0
 10
4.60376722547743
 20
-17.477486165364581
 30
0.0
  0
SPLINE
  5
1F1
100
AcDbEntity
  8
A
 62
     7
100
AcDbSpline
210
0.0
220
0.0
230
1.0
 70
     8
 71
     3
 72
    29
 73
    25
 74
     0
 42
0.00000001
 43
0.00000001
 40
0.0
 40
0.0
 40
0.0
 40
0.0
 40
1.0
 40
1.0
 40
1.0
 40
2.0
 40
2.0
 40
2.0
 40
3.0
 40
3.0
 40
3.0
 40
4.0
 40
4.0
 40
4.0
 40
5.0
 40
5.0
 40
5.0
 40
6.0
 40
6.0
 40
6.0
 40
7.0
 40
7.0
 40
7.0
 40
8.0
 40
8.0
 40
8.0
 40
8.0
 10
4.60376722547743
 20
-14.578782823350693
 30
0.0
 10
5.004259575737847
 20
-14.578782823350693
 30
0.0
 10
5.3287875705295136
 20
-14.90331081814236
 30
0.0
 10
5.3287875705295136
 20
-15.303630913628471
 30
0.0
 10
5.3287875705295136
 20
-15.303630913628471
 30
0.0
 10
5.3287875705295136
 20
-15.303630913628471
 30
0.0
 10
5.3287875705295136
 20
-15.303630913628471
 30
0.0
 10
5.3287875705295136
 20
-15.703951009114581
 30
0.0
 10
5.004259575737847
 20
-16.028479003906249
 30
0.0
 10
4.60376722547743
 20
-16.028479003906249
 30
0.0
 10
4.60376722547743
 20
-16.028479003906249
 30
0.0
 10
-4.6039394802517357
 20
-16.028479003906249
 30
0.0
 10
-4.6039394802517357
 20
-16.028479003906249
 30
0.0
 10
-5.0039150661892355
 20
-16.028479003906249
 30
0.0
 10
-5.3287875705295136
 20
-15.703951009114581
 30
0.0
 10
-5.3287875705295136
 20
-15.303630913628471
 30
0.0
 10
-5.3287875705295136
 20
-15.303630913628471
 30
0.0
 10
-5.3287875705295136
 20
-15.303630913628471
 30
0.0
 10
-5.3287875705295136
 20
-15.303630913628471
 30
0.0
 10
-5.3287875705295136
 20
-14.90331081814236
 30
0.0
 10
-5.0039150661892355
 20
-14.578782823350693
 30
0.0
 10
-4.6039394802517357
 20
-14.578782823350693
 30
0.0
 10
-4.6039394802517357
 20
-14.578782823350693
 30
0.0
 10
4.60376722547743
 20
-14.578782823350693
 30
0.0
 10
4.60376722547743
 20
-14.578782823350693
 30
0.0
  0
SPLINE
  5
1F0
100
AcDbEntity
  8
A
 62
     7
100
AcDbSpline
210
0.0
220
0.0
230
1.0
 70
     8
 71
     3
 72
    29
 73
    25
 74
     0
 42
0.00000001
 43
0.00000001
 40
0.0
 40
0.0
 40
0.0
 40
0.0
 40
1.0
 40
1.0
 40
1.0
 40
2.0
 40
2.0
 40
2.0
 40
3.0
 40
3.0
 40
3.0
 40
4.0
 40
4.0
 40
4.0
 40
5.0
 40
5.0
 40
5.0
 40
6.0
 40
6.0
 40
6.0
 40
7.0
 40
7.0
 40
7.0
 40
8.0
 40
8.0
 40
8.0
 40
8.0
 10
4.60376722547743
 20
-11.850267198350693
 30
0.0
 10
5.004259575737847
 20
-11.850267198350693
 30
0.0
 10
5.3287875705295136
 20
-12.175484212239581
 30
0.0
 10
5.3287875705295136
 20
-12.575115288628471
 30
0.0
 10
5.3287875705295136
 20
-12.575115288628471
 30
0.0
 10
5.3287875705295136
 20
-12.575115288628471
 30
0.0
 10
5.3287875705295136
 20
-12.575115288628471
 30
0.0
 10
5.3287875705295136
 20
-12.975779893663193
 30
0.0
 10
5.004259575737847
 20
-13.30030788845486
 30
0.0
 10
4.60376722547743
 20
-13.30030788845486
 30
0.0
 10
4.60376722547743
 20
-13.30030788845486
 30
0.0
 10
-4.6039394802517357
 20
-13.30030788845486
 30
0.0
 10
-4.6039394802517357
 20
-13.30030788845486
 30
0.0
 10
-5.0039150661892355
 20
-13.30030788845486
 30
0.0
 10
-5.3287875705295136
 20
-12.975779893663193
 30
0.0
 10
-5.3287875705295136
 20
-12.575115288628471
 30
0.0
 10
-5.3287875705295136
 20
-12.575115288628471
 30
0.0
 10
-5.3287875705295136
 20
-12.575115288628471
 30
0.0
 10
-5.3287875705295136
 20
-12.575115288628471
 30
0.0
 10
-5.3287875705295136
 20
-12.175484212239581
 30
0.0
 10
-5.0039150661892355
 20
-11.850267198350693
 30
0.0
 10
-4.6039394802517357
 20
-11.850267198350693
 30
0.0
 10
-4.6039394802517357
 20
-11.850267198350693
 30
0.0
 10
4.60376722547743
 20
-11.850267198350693
 30
0.0
 10
4.60376722547743
 20
-11.850267198350693
 30
0.0
  0
SPLINE
  5
1EF
100
AcDbEntity
  8
A
 62
     7
100
AcDbSpline
210
0.0
220
0.0
230
1.0
 70
     8
 71
     3
 72
    29
 73
    25
 74
     0
 42
0.00000001
 43
0.00000001
 40
0.0
 40
0.0
 40
0.0
 40
0.0
 40
1.0
 40
1.0
 40
1.0
 40
2.0
 40
2.0
 40
2.0
 40
3.0
 40
3.0
 40
3.0
 40
4.0
 40
4.0
 40
4.0
 40
5.0
 40
5.0
 40
5.0
 40
6.0
 40
6.0
 40
6.0
 40
7.0
 40
7.0
 40
7.0
 40
8.0
 40
8.0
 40
8.0
 40
8.0
 10
4.60376722547743
 20
-8.9519083658854157
 30
0.0
 10
5.004259575737847
 20
-8.9519083658854157
 30
0.0
 10
5.3287875705295136
 20
-9.2760918511284718
 30
0.0
 10
5.3287875705295136
 20
-9.6764119466145821
 30
0.0
 10
5.3287875705295136
 20
-9.6764119466145821
 30
0.0
 10
5.3287875705295136
 20
-9.6764119466145821
 30
0.0
 10
5.3287875705295136
 20
-9.6764119466145821
 30
0.0
 10
5.3287875705295136
 20
-10.077421061197915
 30
0.0
 10
5.004259575737847
 20
-10.40126003689236
 30
0.0
 10
4.60376722547743
 20
-10.40126003689236
 30
0.0
 10
4.60376722547743
 20
-10.40126003689236
 30
0.0
 10
-4.6039394802517357
 20
-10.40126003689236
 30
0.0
 10
-4.6039394802517357
 20
-10.40126003689236
 30
0.0
 10
-5.0039150661892355
 20
-10.40126003689236
 30
0.0
 10
-5.3287875705295136
 20
-10.077421061197915
 30
0.0
 10
-5.3287875705295136
 20
-9.6764119466145821
 30
0.0
 10
-5.3287875705295136
 20
-9.6764119466145821
 30
0.0
 10
-5.3287875705295136
 20
-9.6764119466145821
 30
0.0
 10
-5.3287875705295136
 20
-9.6764119466145821
 30
0.0
 10
-5.3287875705295136
 20
-9.2760918511284718
 30
0.0
 10
-5.0039150661892355
 20
-8.9519083658854157
 30
0.0
 10
-4.6039394802517357
 20
-8.9519083658854157
 30
0.0
 10
-4.6039394802517357
 20
-8.9519083658854157
 30
0.0
 10
4.60376722547743
 20
-8.9519083658854157
 30
0.0
 10
4.60376722547743
 20
-8.9519083658854157
 30
0.0
  0
SPLINE
  5
1EE
100
AcDbEntity
  8
A
 62
     7
100
AcDbSpline
210
0.0
220
0.0
230
1.0
 70
     8
 71
     3
 72
    29
 73
    25
 74
     0
 42
0.00000001
 43
0.00000001
 40
0.0
 40
0.0
 40
0.0
 40
0.0
 40
1.0
 40
1.0
 40
1.0
 40
2.0
 40
2.0
 40
2.0
 40
3.0
 40
3.0
 40
3.0
 40
4.0
 40
4.0
 40
4.0
 40
5.0
 40
5.0
 40
5.0
 40
6.0
 40
6.0
 40
6.0
 40
7.0
 40
7.0
 40
7.0
 40
8.0
 40
8.0
 40
8.0
 40
8.0
 10
4.60376722547743
 20
-6.2230482313368052
 30
0.0
 10
5.004259575737847
 20
-6.2230482313368052
 30
0.0
 10
5.3287875705295136
 20
-6.5482652452256938
 30
0.0
 10
5.3287875705295136
 20
-6.948585340711805
 30
0.0
 10
5.3287875705295136
 20
-6.948585340711805
 30
0.0
 10
5.3287875705295136
 20
-6.948585340711805
 30
0.0
 10
5.3287875705295136
 20
-6.948585340711805
 30
0.0
 10
5.3287875705295136
 20
-7.3492499457465268
 30
0.0
 10
5.004259575737847
 20
-7.6737779405381934
 30
0.0
 10
4.60376722547743
 20
-7.6737779405381934
 30
0.0
 10
4.60376722547743
 20
-7.6737779405381934
 30
0.0
 10
-4.6039394802517357
 20
-7.6737779405381934
 30
0.0
 10
-4.6039394802517357
 20
-7.6737779405381934
 30
0.0
 10
-5.0039150661892355
 20
-7.6737779405381934
 30
0.0
 10
-5.3287875705295136
 20
-7.3492499457465268
 30
0.0
 10
-5.3287875705295136
 20
-6.948585340711805
 30
0.0
 10
-5.3287875705295136
 20
-6.948585340711805
 30
0.0
 10
-5.3287875705295136
 20
-6.948585340711805
 30
0.0
 10
-5.3287875705295136
 20
-6.948585340711805
 30
0.0
 10
-5.3287875705295136
 20
-6.5482652452256938
 30
0.0
 10
-5.0039150661892355
 20
-6.2230482313368052
 30
0.0
 10
-4.6039394802517357
 20
-6.2230482313368052
 30
0.0
 10
-4.6039394802517357
 20
-6.2230482313368052
 30
0.0
 10
4.60376722547743
 20
-6.2230482313368052
 30
0.0
 10
4.60376722547743
 20
-6.2230482313368052
 30
0.0
  0
SPLINE
  5
1ED
100
AcDbEntity
  8
A
 62
     7
100
AcDbSpline
210
0.0
220
0.0
230
1.0
 70
     8
 71
     3
 72
    29
 73
    25
 74
     0
 42
0.00000001
 43
0.00000001
 40
0.0
 40
0.0
 40
0.0
 40
0.0
 40
1.0
 40
1.0
 40
1.0
 40
2.0
 40
2.0
 40
2.0
 40
3.0
 40
3.0
 40
3.0
 40
4.0
 40
4.0
 40
4.0
 40
5.0
 40
5.0
 40
5.0
 40
6.0
 40
6.0
 40
6.0
 40
7.0
 40
7.0
 40
7.0
 40
8.0
 40
8.0
 40
8.0
 40
8.0
 10
4.60376722547743
 20
-3.3243448893229162
 30
0.0
 10
5.004259575737847
 20
-3.3243448893229162
 30
0.0
 10
5.3287875705295136
 20
-3.6495619032118052
 30
0.0
 10
5.3287875705295136
 20
-4.0498819986979164
 30
0.0
 10
5.3287875705295136
 20
-4.0498819986979164
 30
0.0
 10
5.3287875705295136
 20
-4.0498819986979164
 30
0.0
 10
5.3287875705295136
 20
-4.0498819986979164
 30
0.0
 10
5.3287875705295136
 20
-4.4502020941840277
 30
0.0
 10
5.004259575737847
 20
-4.7747300889756943
 30
0.0
 10
4.60376722547743
 20
-4.7747300889756943
 30
0.0
 10
4.60376722547743
 20
-4.7747300889756943
 30
0.0
 10
-4.6039394802517357
 20
-4.7747300889756943
 30
0.0
 10
-4.6039394802517357
 20
-4.7747300889756943
 30
0.0
 10
-5.0039150661892355
 20
-4.7747300889756943
 30
0.0
 10
-5.3287875705295136
 20
-4.4502020941840277
 30
0.0
 10
-5.3287875705295136
 20
-4.0498819986979164
 30
0.0
 10
-5.3287875705295136
 20
-4.0498819986979164
 30
0.0
 10
-5.3287875705295136
 20
-4.0498819986979164
 30
0.0
 10
-5.3287875705295136
 20
-4.0498819986979164
 30
0.0
 10
-5.3287875705295136
 20
-3.6495619032118052
 30
0.0
 10
-5.0039150661892355
 20
-3.3243448893229162
 30
0.0
 10
-4.6039394802517357
 20
-3.3243448893229162
 30
0.0
 10
-4.6039394802517357
 20
-3.3243448893229162
 30
0.0
 10
4.60376722547743
 20
-3.3243448893229162
 30
0.0
 10
4.60376722547743
 20
-3.3243448893229162
 30
0.0
  0
SPLINE
  5
1EC
100
AcDbEntity
  8
A
 62
     7
100
AcDbSpline
210
0.0
220
0.0
230
1.0
 70
     8
 71
     3
 72
    29
 73
    25
 74
     0
 42
0.00000001
 43
0.00000001
 40
0.0
 40
0.0
 40
0.0
 40
0.0
 40
1.0
 40
1.0
 40
1.0
 40
2.0
 40
2.0
 40
2.0
 40
3.0
 40
3.0
 40
3.0
 40
4.0
 40
4.0
 40
4.0
 40
5.0
 40
5.0
 40
5.0
 40
6.0
 40
6.0
 40
6.0
 40
7.0
 40
7.0
 40
7.0
 40
8.0
 40
8.0
 40
8.0
 40
8.0
 10
4.60376722547743
 20
-0.5965182834201388
 30
0.0
 10
5.004259575737847
 20
-0.5965182834201388
 30
0.0
 10
5.3287875705295136
 20
-0.9213907877604166
 30
0.0
 10
5.3287875705295136
 20
-1.3217108832465276
 30
0.0
 10
5.3287875705295136
 20
-1.3217108832465276
 30
0.0
 10
5.3287875705295136
 20
-1.3217108832465276
 30
0.0
 10
5.3287875705295136
 20
-1.3217108832465276
 30
0.0
 10
5.3287875705295136
 20
-1.7220309787326387
 30
0.0
 10
5.004259575737847
 20
-2.0472479926215277
 30
0.0
 10
4.60376722547743
 20
-2.0472479926215277
 30
0.0
 10
4.60376722547743
 20
-2.0472479926215277
 30
0.0
 10
-4.6039394802517357
 20
-2.0472479926215277
 30
0.0
 10
-4.6039394802517357
 20
-2.0472479926215277
 30
0.0
 10
-5.0039150661892355
 20
-2.0472479926215277
 30
0.0
 10
-5.3287875705295136
 20
-1.7220309787326387
 30
0.0
 10
-5.3287875705295136
 20
-1.3217108832465276
 30
0.0
 10
-5.3287875705295136
 20
-1.3217108832465276
 30
0.0
 10
-5.3287875705295136
 20
-1.3217108832465276
 30
0.0
 10
-5.3287875705295136
 20
-1.3217108832465276
 30
0.0
 10
-5.3287875705295136
 20
-0.9213907877604166
 30
0.0
 10
-5.0039150661892355
 20
-0.5965182834201388
 30
0.0
 10
-4.6039394802517357
 20
-0.5965182834201388
 30
0.0
 10
-4.6039394802517357
 20
-0.5965182834201388
 30
0.0
 10
4.60376722547743
 20
-0.5965182834201388
 30
0.0
 10
4.60376722547743
 20
-0.5965182834201388
 30
0.0
  0
SPLINE
  5
1EB
100
AcDbEntity
  8
A
 62
     7
100
AcDbSpline
210
0.0
220
0.0
230
1.0
 70
     8
 71
     3
 72
    29
 73
    25
 74
     0
 42
0.00000001
 43
0.00000001
 40
0.0
 40
0.0
 40
0.0
 40
0.0
 40
1.0
 40
1.0
 40
1.0
 40
2.0
 40
2.0
 40
2.0
 40
3.0
 40
3.0
 40
3.0
 40
4.0
 40
4.0
 40
4.0
 40
5.0
 40
5.0
 40
5.0
 40
6.0
 40
6.0
 40
6.0
 40
7.0
 40
7.0
 40
7.0
 40
8.0
 40
8.0
 40
8.0
 40
8.0
 10
4.60376722547743
 20
2.0462144639756943
 30
0.0
 10
5.004259575737847
 20
2.0462144639756943
 30
0.0
 10
5.3287875705295136
 20
1.7213419596354165
 30
0.0
 10
5.3287875705295136
 20
1.3206773546006942
 30
0.0
 10
5.3287875705295136
 20
1.3206773546006942
 30
0.0
 10
5.3287875705295136
 20
1.3206773546006942
 30
0.0
 10
5.3287875705295136
 20
1.3206773546006942
 30
0.0
 10
5.3287875705295136
 20
0.9207017686631943
 30
0.0
 10
5.004259575737847
 20
0.5961737738715277
 30
0.0
 10
4.60376722547743
 20
0.5961737738715277
 30
0.0
 10
4.60376722547743
 20
0.5961737738715277
 30
0.0
 10
-4.6039394802517357
 20
0.5961737738715277
 30
0.0
 10
-4.6039394802517357
 20
0.5961737738715277
 30
0.0
 10
-5.0039150661892355
 20
0.5961737738715277
 30
0.0
 10
-5.3287875705295136
 20
0.9207017686631943
 30
0.0
 10
-5.3287875705295136
 20
1.3206773546006942
 30
0.0
 10
-5.3287875705295136
 20
1.3206773546006942
 30
0.0
 10
-5.3287875705295136
 20
1.3206773546006942
 30
0.0
 10
-5.3287875705295136
 20
1.3206773546006942
 30
0.0
 10
-5.3287875705295136
 20
1.7213419596354165
 30
0.0
 10
-5.0039150661892355
 20
2.0462144639756943
 30
0.0
 10
-4.6039394802517357
 20
2.0462144639756943
 30
0.0
 10
-4.6039394802517357
 20
2.0462144639756943
 30
0.0
 10
4.60376722547743
 20
2.0462144639756943
 30
0.0
 10
4.60376722547743
 20
2.0462144639756943
 30
0.0
  0
SPLINE
  5
1EA
100
AcDbEntity
  8
A
 62
     7
100
AcDbSpline
210
0.0
220
0.0
230
1.0
 70
     8
 71
     3
 72
    29
 73
    25
 74
     0
 42
0.00000001
 43
0.00000001
 40
0.0
 40
0.0
 40
0.0
 40
0.0
 40
1.0
 40
1.0
 40
1.0
 40
2.0
 40
2.0
 40
2.0
 40
3.0
 40
3.0
 40
3.0
 40
4.0
 40
4.0
 40
4.0
 40
5.0
 40
5.0
 40
5.0
 40
6.0
 40
6.0
 40
6.0
 40
7.0
 40
7.0
 40
7.0
 40
8.0
 40
8.0
 40
8.0
 40
8.0
 10
4.60376722547743
 20
4.7743855794270829
 30
0.0
 10
5.004259575737847
 20
4.7743855794270829
 30
0.0
 10
5.3287875705295136
 20
4.4498575846354163
 30
0.0
 10
5.3287875705295136
 20
4.048848470052083
 30
0.0
 10
5.3287875705295136
 20
4.048848470052083
 30
0.0
 10
5.3287875705295136
 20
4.048848470052083
 30
0.0
 10
5.3287875705295136
 20
4.048848470052083
 30
0.0
 10
5.3287875705295136
 20
3.6488728841145832
 30
0.0
 10
5.004259575737847
 20
3.3243448893229162
 30
0.0
 10
4.60376722547743
 20
3.3243448893229162
 30
0.0
 10
4.60376722547743
 20
3.3243448893229162
 30
0.0
 10
-4.6039394802517357
 20
3.3243448893229162
 30
0.0
 10
-4.6039394802517357
 20
3.3243448893229162
 30
0.0
 10
-5.0039150661892355
 20
3.3243448893229162
 30
0.0
 10
-5.3287875705295136
 20
3.6488728841145832
 30
0.0
 10
-5.3287875705295136
 20
4.048848470052083
 30
0.0
 10
-5.3287875705295136
 20
4.048848470052083
 30
0.0
 10
-5.3287875705295136
 20
4.048848470052083
 30
0.0
 10
-5.3287875705295136
 20
4.048848470052083
 30
0.0
 10
-5.3287875705295136
 20
4.4498575846354163
 30
0.0
 10
-5.0039150661892355
 20
4.7743855794270829
 30
0.0
 10
-4.6039394802517357
 20
4.7743855794270829
 30
0.0
 10
-4.6039394802517357
 20
4.7743855794270829
 30
0.0
 10
4.60376722547743
 20
4.7743855794270829
 30
0.0
 10
4.60376722547743
 20
4.7743855794270829
 30
0.0
  0
SPLINE
  5
1E9
100
AcDbEntity
  8
A
 62
     7
100
AcDbSpline
210
0.0
220
0.0
230
1.0
 70
     8
 71
     3
 72
    29
 73
    25
 74
     0
 42
0.00000001
 43
0.00000001
 40
0.0
 40
0.0
 40
0.0
 40
0.0
 40
1.0
 40
1.0
 40
1.0
 40
2.0
 40
2.0
 40
2.0
 40
3.0
 40
3.0
 40
3.0
 40
4.0
 40
4.0
 40
4.0
 40
5.0
 40
5.0
 40
5.0
 40
6.0
 40
6.0
 40
6.0
 40
7.0
 40
7.0
 40
7.0
 40
8.0
 40
8.0
 40
8.0
 40
8.0
 10
4.60376722547743
 20
7.6730889214409714
 30
0.0
 10
5.004259575737847
 20
7.6730889214409714
 30
0.0
 10
5.3287875705295136
 20
7.3485609266493048
 30
0.0
 10
5.3287875705295136
 20
6.9482408311631936
 30
0.0
 10
5.3287875705295136
 20
6.9482408311631936
 30
0.0
 10
5.3287875705295136
 20
6.9482408311631936
 30
0.0
 10
5.3287875705295136
 20
6.9482408311631936
 30
0.0
 10
5.3287875705295136
 20
6.5475762261284718
 30
0.0
 10
5.004259575737847
 20
6.2230482313368052
 30
0.0
 10
4.60376722547743
 20
6.2230482313368052
 30
0.0
 10
4.60376722547743
 20
6.2230482313368052
 30
0.0
 10
-4.6039394802517357
 20
6.2230482313368052
 30
0.0
 10
-4.6039394802517357
 20
6.2230482313368052
 30
0.0
 10
-5.0039150661892355
 20
6.2230482313368052
 30
0.0
 10
-5.3287875705295136
 20
6.5475762261284718
 30
0.0
 10
-5.3287875705295136
 20
6.9482408311631936
 30
0.0
 10
-5.3287875705295136
 20
6.9482408311631936
 30
0.0
 10
-5.3287875705295136
 20
6.9482408311631936
 30
0.0
 10
-5.3287875705295136
 20
6.9482408311631936
 30
0.0
 10
-5.3287875705295136
 20
7.3485609266493048
 30
0.0
 10
-5.0039150661892355
 20
7.6730889214409714
 30
0.0
 10
-4.6039394802517357
 20
7.6730889214409714
 30
0.0
 10
-4.6039394802517357
 20
7.6730889214409714
 30
0.0
 10
4.60376722547743
 20
7.6730889214409714
 30
0.0
 10
4.60376722547743
 20
7.6730889214409714
 30
0.0
  0
SPLINE
  5
1E8
100
AcDbEntity
  8
A
 62
     7
100
AcDbSpline
210
0.0
220
0.0
230
1.0
 70
     8
 71
     3
 72
    29
 73
    25
 74
     0
 42
0.00000001
 43
0.00000001
 40
0.0
 40
0.0
 40
0.0
 40
0.0
 40
1.0
 40
1.0
 40
1.0
 40
2.0
 40
2.0
 40
2.0
 40
3.0
 40
3.0
 40
3.0
 40
4.0
 40
4.0
 40
4.0
 40
5.0
 40
5.0
 40
5.0
 40
6.0
 40
6.0
 40
6.0
 40
7.0
 40
7.0
 40
7.0
 40
8.0
 40
8.0
 40
8.0
 40
8.0
 10
4.60376722547743
 20
10.400915527343749
 30
0.0
 10
5.004259575737847
 20
10.400915527343749
 30
0.0
 10
5.3287875705295136
 20
10.076732042100694
 30
0.0
 10
5.3287875705295136
 20
9.6764119466145821
 30
0.0
 10
5.3287875705295136
 20
9.6764119466145821
 30
0.0
 10
5.3287875705295136
 20
9.6764119466145821
 30
0.0
 10
5.3287875705295136
 20
9.6764119466145821
 30
0.0
 10
5.3287875705295136
 20
9.2754028320312489
 30
0.0
 10
5.004259575737847
 20
8.9512193467881929
 30
0.0
 10
4.60376722547743
 20
8.9512193467881929
 30
0.0
 10
4.60376722547743
 20
8.9512193467881929
 30
0.0
 10
-4.6039394802517357
 20
8.9512193467881929
 30
0.0
 10
-4.6039394802517357
 20
8.9512193467881929
 30
0.0
 10
-5.0039150661892355
 20
8.9512193467881929
 30
0.0
 10
-5.3287875705295136
 20
9.2754028320312489
 30
0.0
 10
-5.3287875705295136
 20
9.6764119466145821
 30
0.0
 10
-5.3287875705295136
 20
9.6764119466145821
 30
0.0
 10
-5.3287875705295136
 20
9.6764119466145821
 30
0.0
 10
-5.3287875705295136
 20
9.6764119466145821
 30
0.0
 10
-5.3287875705295136
 20
10.076732042100694
 30
0.0
 10
-5.0039150661892355
 20
10.400915527343749
 30
0.0
 10
-4.6039394802517357
 20
10.400915527343749
 30
0.0
 10
-4.6039394802517357
 20
10.400915527343749
 30
0.0
 10
4.60376722547743
 20
10.400915527343749
 30
0.0
 10
4.60376722547743
 20
10.400915527343749
 30
0.0
  0
SPLINE
  5
1E7
100
AcDbEntity
  8
A
 62
     7
100
AcDbSpline
210
0.0
220
0.0
230
1.0
 70
     8
 71
     3
 72
    29
 73
    25
 74
     0
 42
0.00000001
 43
0.00000001
 40
0.0
 40
0.0
 40
0.0
 40
0.0
 40
1.0
 40
1.0
 40
1.0
 40
2.0
 40
2.0
 40
2.0
 40
3.0
 40
3.0
 40
3.0
 40
4.0
 40
4.0
 40
4.0
 40
5.0
 40
5.0
 40
5.0
 40
6.0
 40
6.0
 40
6.0
 40
7.0
 40
7.0
 40
7.0
 40
8.0
 40
8.0
 40
8.0
 40
8.0
 10
4.60376722547743
 20
13.30030788845486
 30
0.0
 10
5.004259575737847
 20
13.30030788845486
 30
0.0
 10
5.3287875705295136
 20
12.975779893663193
 30
0.0
 10
5.3287875705295136
 20
12.575115288628471
 30
0.0
 10
5.3287875705295136
 20
12.575115288628471
 30
0.0
 10
5.3287875705295136
 20
12.575115288628471
 30
0.0
 10
5.3287875705295136
 20
12.575115288628471
 30
0.0
 10
5.3287875705295136
 20
12.174450683593749
 30
0.0
 10
5.004259575737847
 20
11.850267198350693
 30
0.0
 10
4.60376722547743
 20
11.850267198350693
 30
0.0
 10
4.60376722547743
 20
11.850267198350693
 30
0.0
 10
-4.6039394802517357
 20
11.850267198350693
 30
0.0
 10
-4.6039394802517357
 20
11.850267198350693
 30
0.0
 10
-5.0039150661892355
 20
11.850267198350693
 30
0.0
 10
-5.3287875705295136
 20
12.174450683593749
 30
0.0
 10
-5.3287875705295136
 20
12.575115288628471
 30
0.0
 10
-5.3287875705295136
 20
12.575115288628471
 30
0.0
 10
-5.3287875705295136
 20
12.575115288628471
 30
0.0
 10
-5.3287875705295136
 20
12.575115288628471
 30
0.0
 10
-5.3287875705295136
 20
12.975779893663193
 30
0.0
 10
-5.0039150661892355
 20
13.30030788845486
 30
0.0
 10
-4.6039394802517357
 20
13.30030788845486
 30
0.0
 10
-4.6039394802517357
 20
13.30030788845486
 30
0.0
 10
4.60376722547743
 20
13.30030788845486
 30
0.0
 10
4.60376722547743
 20
13.30030788845486
 30
0.0
  0
SPLINE
  5
1E6
100
AcDbEntity
  8
A
 62
     7
100
AcDbSpline
210
0.0
220
0.0
230
1.0
 70
     8
 71
     3
 72
    29
 73
    25
 74
     0
 42
0.00000001
 43
0.00000001
 40
0.0
 40
0.0
 40
0.0
 40
0.0
 40
1.0
 40
1.0
 40
1.0
 40
2.0
 40
2.0
 40
2.0
 40
3.0
 40
3.0
 40
3.0
 40
4.0
 40
4.0
 40
4.0
 40
5.0
 40
5.0
 40
5.0
 40
6.0
 40
6.0
 40
6.0
 40
7.0
 40
7.0
 40
7.0
 40
8.0
 40
8.0
 40
8.0
 40
8.0
 10
4.60376722547743
 20
16.028134494357637
 30
0.0
 10
5.004259575737847
 20
16.028134494357637
 30
0.0
 10
5.3287875705295136
 20
15.703606499565971
 30
0.0
 10
5.3287875705295136
 20
15.302941894531248
 30
0.0
 10
5.3287875705295136
 20
15.302941894531248
 30
0.0
 10
5.3287875705295136
 20
15.302941894531248
 30
0.0
 10
5.3287875705295136
 20
15.302941894531248
 30
0.0
 10
5.3287875705295136
 20
14.902966308593749
 30
0.0
 10
5.004259575737847
 20
14.57809380425347
 30
0.0
 10
4.60376722547743
 20
14.57809380425347
 30
0.0
 10
4.60376722547743
 20
14.57809380425347
 30
0.0
 10
-4.6039394802517357
 20
14.57809380425347
 30
0.0
 10
-4.6039394802517357
 20
14.57809380425347
 30
0.0
 10
-5.0039150661892355
 20
14.57809380425347
 30
0.0
 10
-5.3287875705295136
 20
14.902966308593749
 30
0.0
 10
-5.3287875705295136
 20
15.302941894531248
 30
0.0
 10
-5.3287875705295136
 20
15.302941894531248
 30
0.0
 10
-5.3287875705295136
 20
15.302941894531248
 30
0.0
 10
-5.3287875705295136
 20
15.302941894531248
 30
0.0
 10
-5.3287875705295136
 20
15.703606499565971
 30
0.0
 10
-5.0039150661892355
 20
16.028134494357637
 30
0.0
 10
-4.6039394802517357
 20
16.028134494357637
 30
0.0
 10
-4.6039394802517357
 20
16.028134494357637
 30
0.0
 10
4.60376722547743
 20
16.028134494357637
 30
0.0
 10
4.60376722547743
 20
16.028134494357637
 30
0.0
  0
SPLINE
  5
1E5
100
AcDbEntity
  8
A
 62
     7
100
AcDbSpline
210
0.0
220
0.0
230
1.0
 70
     8
 71
     3
 72
    29
 73
    25
 74
     0
 42
0.00000001
 43
0.00000001
 40
0.0
 40
0.0
 40
0.0
 40
0.0
 40
1.0
 40
1.0
 40
1.0
 40
2.0
 40
2.0
 40
2.0
 40
3.0
 40
3.0
 40
3.0
 40
4.0
 40
4.0
 40
4.0
 40
5.0
 40
5.0
 40
5.0
 40
6.0
 40
6.0
 40
6.0
 40
7.0
 40
7.0
 40
7.0
 40
8.0
 40
8.0
 40
8.0
 40
8.0
 10
4.60376722547743
 20
18.926837836371526
 30
0.0
 10
5.004259575737847
 20
18.926837836371526
 30
0.0
 10
5.3287875705295136
 20
18.601965332031249
 30
0.0
 10
5.3287875705295136
 20
18.201989746093748
 30
0.0
 10
5.3287875705295136
 20
18.201989746093748
 30
0.0
 10
5.3287875705295136
 20
18.201989746093748
 30
0.0
 10
5.3287875705295136
 20
18.201989746093748
 30
0.0
 10
5.3287875705295136
 20
17.801325141059028
 30
0.0
 10
5.004259575737847
 20
17.476797146267359
 30
0.0
 10
4.60376722547743
 20
17.476797146267359
 30
0.0
 10
4.60376722547743
 20
17.476797146267359
 30
0.0
 10
-4.6039394802517357
 20
17.476797146267359
 30
0.0
 10
-4.6039394802517357
 20
17.476797146267359
 30
0.0
 10
-5.0039150661892355
 20
17.476797146267359
 30
0.0
 10
-5.3287875705295136
 20
17.801325141059028
 30
0.0
 10
-5.3287875705295136
 20
18.201989746093748
 30
0.0
 10
-5.3287875705295136
 20
18.201989746093748
 30
0.0
 10
-5.3287875705295136
 20
18.201989746093748
 30
0.0
 10
-5.3287875705295136
 20
18.201989746093748
 30
0.0
 10
-5.3287875705295136
 20
18.601965332031249
 30
0.0
 10
-5.0039150661892355
 20
18.926837836371526
 30
0.0
 10
-4.6039394802517357
 20
18.926837836371526
 30
0.0
 10
-4.6039394802517357
 20
18.926837836371526
 30
0.0
 10
4.60376722547743
 20
18.926837836371526
 30
0.0
 10
4.60376722547743
 20
18.926837836371526
 30
0.0
  0
SPLINE
  5
1E4
100
AcDbEntity
  8
A
 62
     7
100
AcDbSpline
210
0.0
220
0.0
230
1.0
 70
     8
 71
     3
 72
    29
 73
    25
 74
     0
 42
0.00000001
 43
0.00000001
 40
0.0
 40
0.0
 40
0.0
 40
0.0
 40
1.0
 40
1.0
 40
1.0
 40
2.0
 40
2.0
 40
2.0
 40
3.0
 40
3.0
 40
3.0
 40
4.0
 40
4.0
 40
4.0
 40
5.0
 40
5.0
 40
5.0
 40
6.0
 40
6.0
 40
6.0
 40
7.0
 40
7.0
 40
7.0
 40
8.0
 40
8.0
 40
8.0
 40
8.0
 10
4.60376722547743
 20
21.655008951822914
 30
0.0
 10
5.004259575737847
 20
21.655008951822914
 30
0.0
 10
5.3287875705295136
 20
21.329791937934026
 30
0.0
 10
5.3287875705295136
 20
20.930160861545136
 30
0.0
 10
5.3287875705295136
 20
20.930160861545136
 30
0.0
 10
5.3287875705295136
 20
20.930160861545136
 30
0.0
 10
5.3287875705295136
 20
20.930160861545136
 30
0.0
 10
5.3287875705295136
 20
20.529496256510416
 30
0.0
 10
5.004259575737847
 20
20.204968261718747
 30
0.0
 10
4.60376722547743
 20
20.204968261718747
 30
0.0
 10
4.60376722547743
 20
20.204968261718747
 30
0.0
 10
-4.6039394802517357
 20
20.204968261718747
 30
0.0
 10
-4.6039394802517357
 20
20.204968261718747
 30
0.0
 10
-5.0039150661892355
 20
20.204968261718747
 30
0.0
 10
-5.3287875705295136
 20
20.529496256510416
 30
0.0
 10
-5.3287875705295136
 20
20.930160861545136
 30
0.0
 10
-5.3287875705295136
 20
20.930160861545136
 30
0.0
 10
-5.3287875705295136
 20
20.930160861545136
 30
0.0
 10
-5.3287875705295136
 20
20.930160861545136
 30
0.0
 10
-5.3287875705295136
 20
21.329791937934026
 30
0.0
 10
-5.0039150661892355
 20
21.655008951822914
 30
0.0
 10
-4.6039394802517357
 20
21.655008951822914
 30
0.0
 10
-4.6039394802517357
 20
21.655008951822914
 30
0.0
 10
4.60376722547743
 20
21.655008951822914
 30
0.0
 10
4.60376722547743
 20
21.655008951822914
 30
0.0
  0
ENDBLK
  5
1F4
100
AcDbEntity
  8
A
100
AcDbBlockEnd
  0
BLOCK
  5
1F9
100
AcDbEntity
  8
A
 62
     7
100
AcDbBlockBegin
  2
AI9-BLK8
 70
     0
 10
0.0
 20
0.0
 30
0.0
  3
AI9-BLK8
  1

  0
CIRCLE
  5
207
100
AcDbEntity
  8
A
 62
     7
100
AcDbCircle
 10
-0.014728
 20
0.097238
 30
0.0
 40
1.336869
  0
LINE
  5
206
100
AcDbEntity
  8
A
 62
     7
100
AcDbLine
 10
0.878585
 20
0.350969
 30
0.0
 11
0.206964
 21
0.350625
 31
0.0
  0
LINE
  5
205
100
AcDbEntity
  8
A
 62
     7
100
AcDbLine
 10
-0.242793
 20
1.022935
 30
0.0
 11
-0.242449
 21
0.349763
 31
0.0
  0
LINE
  5
204
100
AcDbEntity
  8
A
 62
     7
100
AcDbLine
 10
0.206964
 20
0.350625
 30
0.0
 11
0.206275
 21
1.023624
 31
0.0
  0
LINE
  5
203
100
AcDbEntity
  8
A
 62
     7
100
AcDbLine
 10
-0.242449
 20
0.349763
 30
0.0
 11
-0.914414
 21
0.349419
 31
0.0
  0
LINE
  5
202
100
AcDbEntity
  8
A
 62
     7
100
AcDbLine
 10
0.206275
 20
1.023624
 30
0.0
 11
-0.242793
 21
1.022935
 31
0.0
  0
LINE
  5
201
100
AcDbEntity
  8
A
 62
     7
100
AcDbLine
 10
0.206964
 20
-0.097755
 30
0.0
 11
0.87893
 21
-0.097066
 31
0.0
  0
LINE
  5
200
100
AcDbEntity
  8
A
 62
     7
100
AcDbLine
 10
-0.24176
 20
-0.770754
 30
0.0
 11
0.207309
 21
-0.770065
 31
0.0
  0
LINE
  5
1FF
100
AcDbEntity
  8
A
 62
     7
100
AcDbLine
 10
-0.914414
 20
-0.098444
 30
0.0
 11
-0.242104
 21
-0.097755
 31
0.0
  0
LINE
  5
1FE
100
AcDbEntity
  8
A
 62
     7
100
AcDbLine
 10
0.207309
 20
-0.770065
 30
0.0
 11
0.206964
 21
-0.097755
 31
0.0
  0
LINE
  5
1FD
100
AcDbEntity
  8
A
 62
     7
100
AcDbLine
 10
-0.242104
 20
-0.097755
 30
0.0
 11
-0.24176
 21
-0.770754
 31
0.0
  0
LINE
  5
1FC
100
AcDbEntity
  8
A
 62
     7
100
AcDbLine
 10
0.87893
 20
-0.097066
 30
0.0
 11
0.878585
 21
0.350969
 31
0.0
  0
LINE
  5
1FB
100
AcDbEntity
  8
A
 62
     7
100
AcDbLine
 10
-0.914414
 20
0.349419
 30
0.0
 11
-0.914414
 21
-0.098444
 31
0.0
  0
CIRCLE
  5
1FA
100
AcDbEntity
  8
A
 62
     7
100
AcDbCircle
 10
0.0
 20
-0.000086
 30
0.0
 40
2.02408
  0
ENDBLK
  5
208
100
AcDbEntity
  8
A
100
AcDbBlockEnd
  0
BLOCK
  5
20B
100
AcDbEntity
  8
A
 62
     7
100
AcDbBlockBegin
  2
AI9-BLK9
 70
     0
 10
0.0
 20
0.0
 30
0.0
  3
AI9-BLK9
  1

  0
CIRCLE
  5
219
100
AcDbEntity
  8
A
 62
     7
100
AcDbCircle
 10
-0.014814
 20
0.096979
 30
0.0
 40
1.336869
  0
LINE
  5
218
100
AcDbEntity
  8
A
 62
     7
100
AcDbLine
 10
0.878672
 20
0.350538
 30
0.0
 11
0.206878
 21
0.350194
 31
0.0
  0
LINE
  5
217
100
AcDbEntity
  8
A
 62
     7
100
AcDbLine
 10
-0.242879
 20
1.023021
 30
0.0
 11
-0.242535
 21
0.349849
 31
0.0
  0
LINE
  5
216
100
AcDbEntity
  8
A
 62
     7
100
AcDbLine
 10
0.206878
 20
0.350194
 30
0.0
 11
0.206189
 21
1.023366
 31
0.0
  0
LINE
  5
215
100
AcDbEntity
  8
A
 62
     7
100
AcDbLine
 10
-0.242535
 20
0.349849
 30
0.0
 11
-0.914501
 21
0.349505
 31
0.0
  0
LINE
  5
214
100
AcDbEntity
  8
A
 62
     7
100
AcDbLine
 10
0.206189
 20
1.023366
 30
0.0
 11
-0.242879
 21
1.023021
 31
0.0
  0
LINE
  5
213
100
AcDbEntity
  8
A
 62
     7
100
AcDbLine
 10
0.206878
 20
-0.097668
 30
0.0
 11
0.879016
 21
-0.097324
 31
0.0
  0
LINE
  5
212
100
AcDbEntity
  8
A
 62
     7
100
AcDbLine
 10
-0.241846
 20
-0.770496
 30
0.0
 11
0.207222
 21
-0.770151
 31
0.0
  0
LINE
  5
211
100
AcDbEntity
  8
A
 62
     7
100
AcDbLine
 10
-0.914501
 20
-0.098357
 30
0.0
 11
-0.24219
 21
-0.098013
 31
0.0
  0
LINE
  5
210
100
AcDbEntity
  8
A
 62
     7
100
AcDbLine
 10
0.207222
 20
-0.770151
 30
0.0
 11
0.206878
 21
-0.097668
 31
0.0
  0
LINE
  5
20F
100
AcDbEntity
  8
A
 62
     7
100
AcDbLine
 10
-0.24219
 20
-0.098013
 30
0.0
 11
-0.241846
 21
-0.770496
 31
0.0
  0
LINE
  5
20E
100
AcDbEntity
  8
A
 62
     7
100
AcDbLine
 10
0.879016
 20
-0.097324
 30
0.0
 11
0.878672
 21
0.350538
 31
0.0
  0
LINE
  5
20D
100
AcDbEntity
  8
A
 62
     7
100
AcDbLine
 10
-0.914501
 20
0.349505
 30
0.0
 11
-0.914501
 21
-0.098357
 31
0.0
  0
CIRCLE
  5
20C
100
AcDbEntity
  8
A
 62
     7
100
AcDbCircle
 10
0.0
 20
-0.000172
 30
0.0
 40
2.024166
  0
ENDBLK
  5
21A
100
AcDbEntity
  8
A
100
AcDbBlockEnd
  0
BLOCK
  5
21D
100
AcDbEntity
  8
A
 62
     7
100
AcDbBlockBegin
  2
AI9-BLK10
 70
     0
 10
0.0
 20
0.0
 30
0.0
  3
AI9-BLK10
  1

  0
CIRCLE
  5
22B
100
AcDbEntity
  8
A
 62
     7
100
AcDbCircle
 10
-0.014814
 20
0.096979
 30
0.0
 40
1.336955
  0
LINE
  5
22A
100
AcDbEntity
  8
A
 62
     7
100
AcDbLine
 10
0.878585
 20
0.350538
 30
0.0
 11
0.206964
 21
0.350194
 31
0.0
  0
LINE
  5
229
100
AcDbEntity
  8
A
 62
     7
100
AcDbLine
 10
-0.242793
 20
1.023021
 30
0.0
 11
-0.242449
 21
0.349849
 31
0.0
  0
LINE
  5
228
100
AcDbEntity
  8
A
 62
     7
100
AcDbLine
 10
0.206964
 20
0.350194
 30
0.0
 11
0.206275
 21
1.023366
 31
0.0
  0
LINE
  5
227
100
AcDbEntity
  8
A
 62
     7
100
AcDbLine
 10
-0.242449
 20
0.349849
 30
0.0
 11
-0.914414
 21
0.349505
 31
0.0
  0
LINE
  5
226
100
AcDbEntity
  8
A
 62
     7
100
AcDbLine
 10
0.206275
 20
1.023366
 30
0.0
 11
-0.242793
 21
1.023021
 31
0.0
  0
LINE
  5
225
100
AcDbEntity
  8
A
 62
     7
100
AcDbLine
 10
0.206964
 20
-0.097668
 30
0.0
 11
0.87893
 21
-0.097324
 31
0.0
  0
LINE
  5
224
100
AcDbEntity
  8
A
 62
     7
100
AcDbLine
 10
-0.24176
 20
-0.770496
 30
0.0
 11
0.207309
 21
-0.770151
 31
0.0
  0
LINE
  5
223
100
AcDbEntity
  8
A
 62
     7
100
AcDbLine
 10
-0.914414
 20
-0.098357
 30
0.0
 11
-0.242104
 21
-0.098013
 31
0.0
  0
LINE
  5
222
100
AcDbEntity
  8
A
 62
     7
100
AcDbLine
 10
0.207309
 20
-0.770151
 30
0.0
 11
0.206964
 21
-0.097668
 31
0.0
  0
LINE
  5
221
100
AcDbEntity
  8
A
 62
     7
100
AcDbLine
 10
-0.242104
 20
-0.098013
 30
0.0
 11
-0.24176
 21
-0.770496
 31
0.0
  0
LINE
  5
220
100
AcDbEntity
  8
A
 62
     7
100
AcDbLine
 10
0.87893
 20
-0.097324
 30
0.0
 11
0.878585
 21
0.350538
 31
0.0
  0
LINE
  5
21F
100
AcDbEntity
  8
A
 62
     7
100
AcDbLine
 10
-0.914414
 20
0.349505
 30
0.0
 11
-0.914414
 21
-0.098357
 31
0.0
  0
CIRCLE
  5
21E
100
AcDbEntity
  8
A
 62
     7
100
AcDbCircle
 10
0.0
 20
-0.000172
 30
0.0
 40
2.02408
  0
ENDBLK
  5
22C
100
AcDbEntity
  8
A
100
AcDbBlockEnd
  0
BLOCK
  5
272
100
AcDbEntity
  8
A
 62
     7
100
AcDbBlockBegin
  2
AI9-BLK11
 70
     0
 10
0.0
 20
0.0
 30
0.0
  3
AI9-BLK11
  1

  0
SPLINE
  5
274
100
AcDbEntity
  8
A
 62
     7
100
AcDbSpline
210
0.0
220
0.0
230
1.0
 70
     8
 71
     3
 72
    11
 73
     7
 74
     0
 42
0.00000001
 43
0.00000001
 40
0.0
 40
0.0
 40
0.0
 40
0.0
 40
1.0
 40
1.0
 40
1.0
 40
2.0
 40
2.0
 40
2.0
 40
2.0
 10
-0.5067735460069444
 20
-7.2595913357204855
 30
0.0
 10
0.0268717447916667
 20
-7.2595913357204855
 30
0.0
 10
0.45888671875
 20
-8.1642734103732639
 30
0.0
 10
0.4592312282986111
 20
-9.2799675835503468
 30
0.0
 10
0.4592312282986111
 20
-10.39566175672743
 30
0.0
 10
0.0272162543402778
 20
-11.300171576605901
 30
0.0
 10
-0.5067735460069444
 20
-11.300171576605901
 30
0.0
  0
SPLINE
  5
273
100
AcDbEntity
  8
A
 62
     7
100
AcDbSpline
210
0.0
220
0.0
230
1.0
 70
     8
 71
     3
 72
    11
 73
     7
 74
     0
 42
0.00000001
 43
0.00000001
 40
0.0
 40
0.0
 40
0.0
 40
0.0
 40
1.0
 40
1.0
 40
1.0
 40
2.0
 40
2.0
 40
2.0
 40
2.0
 10
-0.4592312282986111
 20
11.300171576605901
 30
0.0
 10
0.0744140625
 20
11.300171576605901
 30
0.0
 10
0.5067735460069444
 20
10.39566175672743
 30
0.0
 10
0.5067735460069444
 20
9.2801398383246525
 30
0.0
 10
0.5067735460069444
 20
8.1644456651475679
 30
0.0
 10
0.0747585720486111
 20
7.2595913357204855
 30
0.0
 10
-0.45888671875
 20
7.2595913357204855
 30
0.0
  0
ENDBLK
  5
275
100
AcDbEntity
  8
A
100
AcDbBlockEnd
  0
BLOCK
  5
281
100
AcDbEntity
  8
A
 62
     7
100
AcDbBlockBegin
  2
AI9-BLK12
 70
     0
 10
0.0
 20
0.0
 30
0.0
  3
AI9-BLK12
  1

  0
ELLIPSE
  5
282
100
AcDbEntity
  8
A
 62
     7
100
AcDbEllipse
 10
0.0
 20
-0.000172
 30
0.0
 11
0.0111965603298611
 21
0.0
 31
0.0
210
0.0
220
0.0
230
1.0
 40
0.923205
 41
0.0
 42
6.2831853071795862
  0
ENDBLK
  5
283
100
AcDbEntity
  8
A
100
AcDbBlockEnd
  0
BLOCK
  5
29B
100
AcDbEntity
  8
A
 62
     7
100
AcDbBlockBegin
  2
AI9-BLK13
 70
     0
 10
0.0
 20
0.0
 30
0.0
  3
AI9-BLK13
  1

  0
LINE
  5
29E
100
AcDbEntity
  8
A
 62
     7
100
AcDbLine
 10
-0.000345
 20
13.07965
 30
0.0
 11
-0.000345
 21
-13.079305
 31
0.0
  0
HATCH
  5
29D
100
AcDbEntity
  8
A
 62
     7
100
AcDbHatch
 10
0.0
 20
0.0
 30
0.0
210
0.0
220
0.0
230
1.0
  2
SOLID
 70
     1
 71
     0
 91
        1
 92
        1
 93
        1
 72
     4
 94
        3
 73
     0
 74
     0
 95
       17
 96
       13
 40
0.0
 40
0.0
 40
0.0
 40
0.0
 40
1.0
 40
1.0
 40
1.0
 40
2.0
 40
2.0
 40
2.0
 40
3.0
 40
3.0
 40
3.0
 40
4.0
 40
4.0
 40
4.0
 40
4.0
 10
-0.0003445095486111
 20
-13.418991427951388
 10
-0.0596001519097222
 20
-13.258966742621526
 10
-0.1605414496527778
 20
-13.060873752170139
 10
-0.2676839192708333
 20
-12.938056098090277
 10
-0.2676839192708333
 20
-12.938056098090277
 10
-0.0003445095486111
 20
-13.034691026475693
 10
-0.0003445095486111
 20
-13.034691026475693
 10
-0.0003445095486111
 20
-13.034691026475693
 10
0.2676839192708333
 20
-12.938056098090277
 10
0.2676839192708333
 20
-12.938056098090277
 10
0.1605414496527778
 20
-13.060873752170139
 10
0.0589111328125
 20
-13.258966742621526
 10
-0.0003445095486111
 20
-13.418991427951388
 97
        0
 75
     0
 76
     1
 98
        1
 10
0.0
 20
0.0
  0
HATCH
  5
29C
100
AcDbEntity
  8
A
 62
     7
100
AcDbHatch
 10
0.0
 20
0.0
 30
0.0
210
0.0
220
0.0
230
1.0
  2
SOLID
 70
     1
 71
     0
 91
        1
 92
        1
 93
        1
 72
     4
 94
        3
 73
     0
 74
     0
 95
       17
 96
       13
 40
0.0
 40
0.0
 40
0.0
 40
0.0
 40
1.0
 40
1.0
 40
1.0
 40
2.0
 40
2.0
 40
2.0
 40
3.0
 40
3.0
 40
3.0
 40
4.0
 40
4.0
 40
4.0
 40
4.0
 10
-0.0003445095486111
 20
13.418991427951388
 10
0.0589111328125
 20
13.259138997395832
 10
0.1605414496527778
 20
13.060873752170139
 10
0.2676839192708333
 20
12.938056098090277
 10
0.2676839192708333
 20
12.938056098090277
 10
-0.0003445095486111
 20
13.034863281249999
 10
-0.0003445095486111
 20
13.034863281249999
 10
-0.0003445095486111
 20
13.034863281249999
 10
-0.2676839192708333
 20
12.938056098090277
 10
-0.2676839192708333
 20
12.938056098090277
 10
-0.1605414496527778
 20
13.060873752170139
 10
-0.0596001519097222
 20
13.259138997395832
 10
-0.0003445095486111
 20
13.418991427951388
 97
        0
 75
     0
 76
     1
 98
        1
 10
0.0
 20
0.0
  0
ENDBLK
  5
29F
100
AcDbEntity
  8
A
100
AcDbBlockEnd
  0
BLOCK
  5
2A5
100
AcDbEntity
  8
A
 62
     7
100
AcDbBlockBegin
  2
AI9-BLK14
 70
     0
 10
0.0
 20
0.0
 30
0.0
  3
AI9-BLK14
  1

  0
LINE
  5
2A8
100
AcDbEntity
  8
A
 62
     7
100
AcDbLine
 10
-68.891574
 20
-0.000345
 30
0.0
 11
68.891402
 21
-0.000345
 31
0.0
  0
HATCH
  5
2A7
100
AcDbEntity
  8
A
 62
     7
100
AcDbHatch
 10
0.0
 20
0.0
 30
0.0
210
0.0
220
0.0
230
1.0
  2
SOLID
 70
     1
 71
     0
 91
        1
 92
        1
 93
        1
 72
     4
 94
        3
 73
     0
 74
     0
 95
       17
 96
       13
 40
0.0
 40
0.0
 40
0.0
 40
0.0
 40
1.0
 40
1.0
 40
1.0
 40
2.0
 40
2.0
 40
2.0
 40
3.0
 40
3.0
 40
3.0
 40
4.0
 40
4.0
 40
4.0
 40
4.0
 10
69.246247016059016
 20
-0.0003445095486111
 10
69.079504394531241
 20
-0.0668348524305556
 10
68.87279866536457
 20
-0.1808675130208333
 10
68.743607584635413
 20
-0.3019626193576389
 10
68.743607584635413
 20
-0.3019626193576389
 10
68.844893391927073
 20
-0.0003445095486111
 10
68.844893391927073
 20
-0.0003445095486111
 10
68.844893391927073
 20
-0.0003445095486111
 10
68.743607584635413
 20
0.3019626193576389
 10
68.743607584635413
 20
0.3019626193576389
 10
68.87279866536457
 20
0.1810397677951389
 10
69.079504394531241
 20
0.0668348524305556
 10
69.246247016059016
 20
-0.0003445095486111
 97
        0
 75
     0
 76
     1
 98
        1
 10
0.0
 20
0.0
  0
HATCH
  5
2A6
100
AcDbEntity
  8
A
 62
     7
100
AcDbHatch
 10
0.0
 20
0.0
 30
0.0
210
0.0
220
0.0
230
1.0
  2
SOLID
 70
     1
 71
     0
 91
        1
 92
        1
 93
        1
 72
     4
 94
        3
 73
     0
 74
     0
 95
       17
 96
       13
 40
0.0
 40
0.0
 40
0.0
 40
0.0
 40
1.0
 40
1.0
 40
1.0
 40
2.0
 40
2.0
 40
2.0
 40
3.0
 40
3.0
 40
3.0
 40
4.0
 40
4.0
 40
4.0
 40
4.0
 10
-69.246247016059016
 20
-0.0003445095486111
 10
-69.07915988498263
 20
0.0668348524305556
 10
-68.872109646267361
 20
0.1810397677951389
 10
-68.743607584635413
 20
0.3019626193576389
 10
-68.743607584635413
 20
0.3019626193576389
 10
-68.844893391927073
 20
-0.0003445095486111
 10
-68.844893391927073
 20
-0.0003445095486111
 10
-68.844893391927073
 20
-0.0003445095486111
 10
-68.743607584635413
 20
-0.3019626193576389
 10
-68.743607584635413
 20
-0.3019626193576389
 10
-68.872109646267361
 20
-0.1808675130208333
 10
-69.07915988498263
 20
-0.0668348524305556
 10
-69.246247016059016
 20
-0.0003445095486111
 97
        0
 75
     0
 76
     1
 98
        1
 10
0.0
 20
0.0
  0
ENDBLK
  5
2A9
100
AcDbEntity
  8
A
100
AcDbBlockEnd
  0
ENDSEC
  0
SECTION
  2
ENTITIES
  0
MTEXT
  5
2AA
100
AcDbEntity
  8
A
 62
     7
100
AcDbMText
 10
111.602835
 20
200.630099
 30
0.0
 40
2.095276
 41
0.0
 71
     1
 72
     2
  1
\fMS Mincho|b0|i0|c128;VIDEO DISTRIBUTOR
  7
STD
210
0.0
220
0.0
230
1.0
 11
1.000001
 21
0.0
 31
0.0
 73
     1
 44
1.0
  0
INSERT
  5
2A4
100
AcDbEntity
  8
A
 62
     7
100
AcDbBlockReference
  2
AI9-BLK14
 10
119.019264
 20
231.888171
 30
0.0
  0
LINE
  5
2A2
100
AcDbEntity
  8
A
 62
     7
100
AcDbLine
 10
49.432469
 20
223.605473
 30
0.0
 11
49.432469
 21
234.63753
 31
0.0
  0
LINE
  5
2A1
100
AcDbEntity
  8
A
 62
     7
100
AcDbLine
 10
189.328323
 20
223.605473
 30
0.0
 11
189.328323
 21
234.63753
 31
0.0
  0
MTEXT
  5
2A0
100
AcDbEntity
  8
A
 62
     7
100
AcDbMText
 10
114.461919
 20
236.992568
 30
0.0
 40
4.364735
 41
0.0
 71
     1
 72
     2
  1
\W0.94;\fMS Gothic|b0|i0|c128;218
  7
STD
210
0.0
220
0.0
230
1.0
 11
1.000001
 21
0.0
 31
0.0
 73
     1
 44
1.0
  0
INSERT
  5
29A
100
AcDbEntity
  8
A
 62
     7
100
AcDbBlockReference
  2
AI9-BLK13
 10
202.163026
 20
210.170289
 30
0.0
  0
LINE
  5
298
100
AcDbEntity
  8
A
 62
     7
100
AcDbLine
 10
182.568357
 20
224.029736
 30
0.0
 11
204.600431
 21
224.029736
 31
0.0
  0
LINE
  5
297
100
AcDbEntity
  8
A
 62
     7
100
AcDbLine
 10
182.568357
 20
195.43441
 30
0.0
 11
204.600431
 21
195.43441
 31
0.0
  0
MTEXT
  5
296
100
AcDbEntity
  8
A
 62
     7
100
AcDbMText
 10
198.046643
 20
205.639127
 30
0.0
 40
3.870059
 41
0.0
 71
     1
 72
     2
  1
\fMS Gothic|b0|i0|c128;44
  7
STD
210
0.0
220
0.0
230
1.0
 11
0.0
 21
1.0
 31
0.0
 73
     1
 44
1.0
  0
POLYLINE
  5
290
100
AcDbEntity
  8
A
 62
     7
100
AcDb2dPolyline
 66
     1
 10
0.0
 20
0.0
 30
0.0
 70
     1
  0
VERTEX
  5
291
100
AcDbEntity
  8
A
 62
     7
100
AcDbVertex
100
AcDb2dVertex
 10
189.653885
 20
195.485225
 30
0.0
  0
VERTEX
  5
292
100
AcDbEntity
  8
A
 62
     7
100
AcDbVertex
100
AcDb2dVertex
 10
49.539095
 20
195.485225
 30
0.0
  0
VERTEX
  5
293
100
AcDbEntity
  8
A
 62
     7
100
AcDbVertex
100
AcDb2dVertex
 10
49.539095
 20
224.176153
 30
0.0
  0
VERTEX
  5
294
100
AcDbEntity
  8
A
 62
     7
100
AcDbVertex
100
AcDb2dVertex
 10
189.653885
 20
224.176153
 30
0.0
  0
SEQEND
  5
295
100
AcDbEntity
  8
A
 62
     7
  0
POLYLINE
  5
28A
100
AcDbEntity
  8
A
 62
   255
100
AcDb2dPolyline
 66
     1
 10
0.0
 20
0.0
 30
0.0
 70
     1
  0
VERTEX
  5
28B
100
AcDbEntity
  8
A
 62
   255
100
AcDbVertex
100
AcDb2dVertex
 10
171.778318
 20
204.974396
 30
0.0
  0
VERTEX
  5
28C
100
AcDbEntity
  8
A
 62
   255
100
AcDbVertex
100
AcDb2dVertex
 10
171.778318
 20
218.351702
 30
0.0
  0
VERTEX
  5
28D
100
AcDbEntity
  8
A
 62
   255
100
AcDbVertex
100
AcDb2dVertex
 10
180.668731
 20
218.351702
 30
0.0
  0
VERTEX
  5
28E
100
AcDbEntity
  8
A
 62
   255
100
AcDbVertex
100
AcDb2dVertex
 10
180.668731
 20
204.974396
 30
0.0
  0
SEQEND
  5
28F
100
AcDbEntity
  8
A
 62
   255
  0
POLYLINE
  5
284
100
AcDbEntity
  8
A
 62
   255
100
AcDb2dPolyline
 66
     1
 10
0.0
 20
0.0
 30
0.0
 70
     1
  0
VERTEX
  5
285
100
AcDbEntity
  8
A
 62
   255
100
AcDbVertex
100
AcDb2dVertex
 10
173.24834
 20
206.741386
 30
0.0
  0
VERTEX
  5
286
100
AcDbEntity
  8
A
 62
   255
100
AcDbVertex
100
AcDb2dVertex
 10
173.24834
 20
216.736986
 30
0.0
  0
VERTEX
  5
287
100
AcDbEntity
  8
A
 62
   255
100
AcDbVertex
100
AcDb2dVertex
 10
179.374064
 20
216.736986
 30
0.0
  0
VERTEX
  5
288
100
AcDbEntity
  8
A
 62
   255
100
AcDbVertex
100
AcDb2dVertex
 10
179.374064
 20
206.741386
 30
0.0
  0
SEQEND
  5
289
100
AcDbEntity
  8
A
 62
   255
  0
INSERT
  5
280
100
AcDbEntity
  8
A
 62
     7
100
AcDbBlockReference
  2
AI9-BLK12
 10
176.223697
 20
214.299236
 30
0.0
  0
POLYLINE
  5
279
100
AcDbEntity
  8
A
 62
     7
100
AcDb2dPolyline
 66
     1
 10
0.0
 20
0.0
 30
0.0
 70
     1
  0
VERTEX
  5
27A
100
AcDbEntity
  8
A
 62
     7
100
AcDbVertex
100
AcDb2dVertex
 10
189.594973
 20
222.411919
 30
0.0
  0
VERTEX
  5
27B
100
AcDbEntity
  8
A
 62
     7
100
AcDbVertex
100
AcDb2dVertex
 10
49.486385
 20
222.411919
 30
0.0
  0
VERTEX
  5
27C
100
AcDbEntity
  8
A
 62
     7
100
AcDbVertex
100
AcDb2dVertex
 10
49.486385
 20
223.564993
 30
0.0
  0
VERTEX
  5
27D
100
AcDbEntity
  8
A
 62
     7
100
AcDbVertex
100
AcDb2dVertex
 10
189.594973
 20
223.564993
 30
0.0
  0
SEQEND
  5
27E
100
AcDbEntity
  8
A
 62
     7
  0
MTEXT
  5
278
100
AcDbEntity
  8
A
 62
     7
100
AcDbMText
 10
173.33929
 20
219.755203
 30
0.0
 40
2.095276
 41
0.0
 71
     1
 72
     2
  1
\fMS Mincho|b0|i0|c128;POWER
  7
STD
210
0.0
220
0.0
230
1.0
 11
1.000001
 21
0.0
 31
0.0
 73
     1
 44
1.0
  0
SPLINE
  5
277
100
AcDbEntity
  8
A
 62
     7
100
AcDbSpline
210
0.0
220
0.0
230
1.0
 70
     8
 71
     3
 72
    11
 73
     7
 74
     0
 42
0.00000001
 43
0.00000001
 40
0.0
 40
0.0
 40
0.0
 40
0.0
 40
1.0
 40
1.0
 40
1.0
 40
2.0
 40
2.0
 40
2.0
 40
2.0
 10
49.334628634982636
 20
217.45873345269095
 30
0.0
 10
48.801500108506943
 20
217.45873345269095
 30
0.0
 10
48.369140624999993
 20
218.36341552734373
 30
0.0
 10
48.369140624999993
 20
219.47910970052081
 30
0.0
 10
48.369140624999993
 20
220.59497612847221
 30
0.0
 10
48.801500108506943
 20
221.49948594835067
 30
0.0
 10
49.334628634982636
 20
221.49948594835067
 30
0.0
  0
SPLINE
  5
276
100
AcDbEntity
  8
A
 62
     7
100
AcDbSpline
210
0.0
220
0.0
230
1.0
 70
     8
 71
     3
 72
    11
 73
     7
 74
     0
 42
0.00000001
 43
0.00000001
 40
0.0
 40
0.0
 40
0.0
 40
0.0
 40
1.0
 40
1.0
 40
1.0
 40
2.0
 40
2.0
 40
2.0
 40
2.0
 10
49.286052788628467
 20
198.89879828559026
 30
0.0
 10
48.752579752604163
 20
198.89879828559026
 30
0.0
 10
48.320392523871526
 20
199.80330810546874
 30
0.0
 10
48.320392523871526
 20
200.91917453342012
 30
0.0
 10
48.320392523871526
 20
202.03504096137152
 30
0.0
 10
48.752579752604163
 20
202.93920627170138
 30
0.0
 10
49.286052788628467
 20
202.93920627170138
 30
0.0
  0
INSERT
  5
271
100
AcDbEntity
  8
A
 62
     7
100
AcDbBlockReference
  2
AI9-BLK11
 10
190.404571
 20
209.822593
 30
0.0
  0
SPLINE
  5
26F
100
AcDbEntity
  8
A
 62
     7
100
AcDbSpline
210
0.0
220
0.0
230
1.0
 70
     8
 71
     3
 72
    29
 73
    25
 74
     0
 42
0.00000001
 43
0.00000001
 40
0.0
 40
0.0
 40
0.0
 40
0.0
 40
1.0
 40
1.0
 40
1.0
 40
2.0
 40
2.0
 40
2.0
 40
3.0
 40
3.0
 40
3.0
 40
4.0
 40
4.0
 40
4.0
 40
5.0
 40
5.0
 40
5.0
 40
6.0
 40
6.0
 40
6.0
 40
7.0
 40
7.0
 40
7.0
 40
8.0
 40
8.0
 40
8.0
 40
8.0
 10
183.47200520833331
 20
202.11720648871525
 30
0.0
 10
183.47200520833331
 20
201.76597900390624
 30
0.0
 10
183.18709581163193
 20
201.48089735243053
 30
0.0
 10
182.83535156249999
 20
201.48089735243053
 30
0.0
 10
182.83535156249999
 20
201.48089735243053
 30
0.0
 10
168.1978298611111
 20
201.48089735243053
 30
0.0
 10
168.1978298611111
 20
201.48089735243053
 30
0.0
 10
167.84608561197916
 20
201.48089735243053
 30
0.0
 10
167.56117621527775
 20
201.76597900390624
 30
0.0
 10
167.56117621527775
 20
202.11720648871525
 30
0.0
 10
167.56117621527775
 20
202.11720648871525
 30
0.0
 10
167.56117621527775
 20
215.80043674045137
 30
0.0
 10
167.56117621527775
 20
215.80043674045137
 30
0.0
 10
167.56117621527775
 20
216.15218098958331
 30
0.0
 10
167.84608561197916
 20
216.4367458767361
 30
0.0
 10
168.1978298611111
 20
216.4367458767361
 30
0.0
 10
168.1978298611111
 20
216.4367458767361
 30
0.0
 10
182.83535156249999
 20
216.4367458767361
 30
0.0
 10
182.83535156249999
 20
216.4367458767361
 30
0.0
 10
183.18709581163193
 20
216.4367458767361
 30
0.0
 10
183.47200520833331
 20
216.15218098958331
 30
0.0
 10
183.47200520833331
 20
215.80043674045137
 30
0.0
 10
183.47200520833331
 20
215.80043674045137
 30
0.0
 10
183.47200520833331
 20
202.11720648871525
 30
0.0
 10
183.47200520833331
 20
202.11720648871525
 30
0.0
  0
SPLINE
  5
26E
100
AcDbEntity
  8
A
 62
     7
100
AcDbSpline
210
0.0
220
0.0
230
1.0
 70
     8
 71
     3
 72
    29
 73
    25
 74
     0
 42
0.00000001
 43
0.00000001
 40
0.0
 40
0.0
 40
0.0
 40
0.0
 40
1.0
 40
1.0
 40
1.0
 40
2.0
 40
2.0
 40
2.0
 40
3.0
 40
3.0
 40
3.0
 40
4.0
 40
4.0
 40
4.0
 40
5.0
 40
5.0
 40
5.0
 40
6.0
 40
6.0
 40
6.0
 40
7.0
 40
7.0
 40
7.0
 40
8.0
 40
8.0
 40
8.0
 40
8.0
 10
183.38346625434025
 20
202.11737874348955
 30
0.0
 10
183.38346625434025
 20
201.76597900390624
 30
0.0
 10
183.09855685763887
 20
201.48089735243053
 30
0.0
 10
182.74715711805553
 20
201.48089735243053
 30
0.0
 10
182.74715711805553
 20
201.48089735243053
 30
0.0
 10
181.21960177951388
 20
201.48089735243053
 30
0.0
 10
181.21960177951388
 20
201.48089735243053
 30
0.0
 10
180.86820203993054
 20
201.48089735243053
 30
0.0
 10
180.58294813368053
 20
201.76597900390624
 30
0.0
 10
180.58294813368053
 20
202.11737874348955
 30
0.0
 10
180.58294813368053
 20
202.11737874348955
 30
0.0
 10
180.58294813368053
 20
215.80043674045137
 30
0.0
 10
180.58294813368053
 20
215.80043674045137
 30
0.0
 10
180.58294813368053
 20
216.15218098958331
 30
0.0
 10
180.86820203993054
 20
216.4367458767361
 30
0.0
 10
181.21960177951388
 20
216.4367458767361
 30
0.0
 10
181.21960177951388
 20
216.4367458767361
 30
0.0
 10
182.74715711805553
 20
216.4367458767361
 30
0.0
 10
182.74715711805553
 20
216.4367458767361
 30
0.0
 10
183.09855685763887
 20
216.4367458767361
 30
0.0
 10
183.38346625434025
 20
216.15218098958331
 30
0.0
 10
183.38346625434025
 20
215.80043674045137
 30
0.0
 10
183.38346625434025
 20
215.80043674045137
 30
0.0
 10
183.38346625434025
 20
202.11737874348955
 30
0.0
 10
183.38346625434025
 20
202.11737874348955
 30
0.0
  0
SPLINE
  5
26D
100
AcDbEntity
  8
A
 62
     7
100
AcDbSpline
210
0.0
220
0.0
230
1.0
 70
     8
 71
     3
 72
    29
 73
    25
 74
     0
 42
0.00000001
 43
0.00000001
 40
0.0
 40
0.0
 40
0.0
 40
0.0
 40
1.0
 40
1.0
 40
1.0
 40
2.0
 40
2.0
 40
2.0
 40
3.0
 40
3.0
 40
3.0
 40
4.0
 40
4.0
 40
4.0
 40
5.0
 40
5.0
 40
5.0
 40
6.0
 40
6.0
 40
6.0
 40
7.0
 40
7.0
 40
7.0
 40
8.0
 40
8.0
 40
8.0
 40
8.0
 10
173.92599012586803
 20
202.11720648871525
 30
0.0
 10
173.92599012586803
 20
201.76563449435761
 30
0.0
 10
173.64073621961805
 20
201.48072509765623
 30
0.0
 10
173.28899197048611
 20
201.48072509765623
 30
0.0
 10
173.28899197048611
 20
201.48072509765623
 30
0.0
 10
168.1978298611111
 20
201.48072509765623
 30
0.0
 10
168.1978298611111
 20
201.48072509765623
 30
0.0
 10
167.84608561197916
 20
201.48072509765623
 30
0.0
 10
167.56117621527775
 20
201.76563449435761
 30
0.0
 10
167.56117621527775
 20
202.11720648871525
 30
0.0
 10
167.56117621527775
 20
202.11720648871525
 30
0.0
 10
167.56117621527775
 20
215.80043674045137
 30
0.0
 10
167.56117621527775
 20
215.80043674045137
 30
0.0
 10
167.56117621527775
 20
216.15183648003469
 30
0.0
 10
167.84608561197916
 20
216.4365736219618
 30
0.0
 10
168.1978298611111
 20
216.4365736219618
 30
0.0
 10
168.1978298611111
 20
216.4365736219618
 30
0.0
 10
173.28899197048611
 20
216.4365736219618
 30
0.0
 10
173.28899197048611
 20
216.4365736219618
 30
0.0
 10
173.64073621961805
 20
216.4365736219618
 30
0.0
 10
173.92599012586803
 20
216.15183648003469
 30
0.0
 10
173.92599012586803
 20
215.80043674045137
 30
0.0
 10
173.92599012586803
 20
215.80043674045137
 30
0.0
 10
173.92599012586803
 20
202.11720648871525
 30
0.0
 10
173.92599012586803
 20
202.11720648871525
 30
0.0
  0
POLYLINE
  5
267
100
AcDbEntity
  8
A
 62
     7
100
AcDb2dPolyline
 66
     1
 10
0.0
 20
0.0
 30
0.0
 70
     1
  0
VERTEX
  5
268
100
AcDbEntity
  8
A
 62
     7
100
AcDbVertex
100
AcDb2dVertex
 10
180.361773
 20
204.008908
 30
0.0
  0
VERTEX
  5
269
100
AcDbEntity
  8
A
 62
     7
100
AcDbVertex
100
AcDb2dVertex
 10
173.997648
 20
204.008908
 30
0.0
  0
VERTEX
  5
26A
100
AcDbEntity
  8
A
 62
     7
100
AcDbVertex
100
AcDb2dVertex
 10
173.997648
 20
214.191922
 30
0.0
  0
VERTEX
  5
26B
100
AcDbEntity
  8
A
 62
     7
100
AcDbVertex
100
AcDb2dVertex
 10
180.361773
 20
214.191922
 30
0.0
  0
SEQEND
  5
26C
100
AcDbEntity
  8
A
 62
     7
  0
POLYLINE
  5
261
100
AcDbEntity
  8
A
 62
     7
100
AcDb2dPolyline
 66
     1
 10
0.0
 20
0.0
 30
0.0
 70
     1
  0
VERTEX
  5
262
100
AcDbEntity
  8
A
 62
     7
100
AcDbVertex
100
AcDb2dVertex
 10
172.240649
 20
207.267624
 30
0.0
  0
VERTEX
  5
263
100
AcDbEntity
  8
A
 62
     7
100
AcDbVertex
100
AcDb2dVertex
 10
169.058415
 20
207.267624
 30
0.0
  0
VERTEX
  5
264
100
AcDbEntity
  8
A
 62
     7
100
AcDbVertex
100
AcDb2dVertex
 10
169.058415
 20
210.449687
 30
0.0
  0
VERTEX
  5
265
100
AcDbEntity
  8
A
 62
     7
100
AcDbVertex
100
AcDb2dVertex
 10
172.240649
 20
210.449687
 30
0.0
  0
SEQEND
  5
266
100
AcDbEntity
  8
A
 62
     7
  0
POLYLINE
  5
25B
100
AcDbEntity
  8
A
 62
     7
100
AcDb2dPolyline
 66
     1
 10
0.0
 20
0.0
 30
0.0
 70
     1
  0
VERTEX
  5
25C
100
AcDbEntity
  8
A
 62
     7
100
AcDbVertex
100
AcDb2dVertex
 10
169.095966
 20
201.618873
 30
0.0
  0
VERTEX
  5
25D
100
AcDbEntity
  8
A
 62
     7
100
AcDbVertex
100
AcDb2dVertex
 10
168.459657
 20
201.618873
 30
0.0
  0
VERTEX
  5
25E
100
AcDbEntity
  8
A
 62
     7
100
AcDbVertex
100
AcDb2dVertex
 10
168.459657
 20
216.436746
 30
0.0
  0
VERTEX
  5
25F
100
AcDbEntity
  8
A
 62
     7
100
AcDbVertex
100
AcDb2dVertex
 10
169.095966
 20
216.436746
 30
0.0
  0
SEQEND
  5
260
100
AcDbEntity
  8
A
 62
     7
  0
POLYLINE
  5
255
100
AcDbEntity
  8
A
 62
     7
100
AcDb2dPolyline
 66
     1
 10
0.0
 20
0.0
 30
0.0
 70
     1
  0
VERTEX
  5
256
100
AcDbEntity
  8
A
 62
     7
100
AcDbVertex
100
AcDb2dVertex
 10
172.987891
 20
201.618873
 30
0.0
  0
VERTEX
  5
257
100
AcDbEntity
  8
A
 62
     7
100
AcDbVertex
100
AcDb2dVertex
 10
172.351581
 20
201.618873
 30
0.0
  0
VERTEX
  5
258
100
AcDbEntity
  8
A
 62
     7
100
AcDbVertex
100
AcDb2dVertex
 10
172.351581
 20
216.436746
 30
0.0
  0
VERTEX
  5
259
100
AcDbEntity
  8
A
 62
     7
100
AcDbVertex
100
AcDb2dVertex
 10
172.987891
 20
216.436746
 30
0.0
  0
SEQEND
  5
25A
100
AcDbEntity
  8
A
 62
     7
  0
POLYLINE
  5
24F
100
AcDbEntity
  8
A
 62
     7
100
AcDb2dPolyline
 66
     1
 10
0.0
 20
0.0
 30
0.0
 70
     1
  0
VERTEX
  5
250
100
AcDbEntity
  8
A
 62
     7
100
AcDbVertex
100
AcDb2dVertex
 10
179.872225
 20
204.762006
 30
0.0
  0
VERTEX
  5
251
100
AcDbEntity
  8
A
 62
     7
100
AcDbVertex
100
AcDb2dVertex
 10
174.446544
 20
204.762006
 30
0.0
  0
VERTEX
  5
252
100
AcDbEntity
  8
A
 62
     7
100
AcDbVertex
100
AcDb2dVertex
 10
174.446544
 20
213.443302
 30
0.0
  0
VERTEX
  5
253
100
AcDbEntity
  8
A
 62
     7
100
AcDbVertex
100
AcDb2dVertex
 10
179.872225
 20
213.443302
 30
0.0
  0
SEQEND
  5
254
100
AcDbEntity
  8
A
 62
     7
  0
LINE
  5
24E
100
AcDbEntity
  8
A
 62
     7
100
AcDbLine
 10
174.4462
 20
211.720582
 30
0.0
 11
179.678266
 21
211.720582
 31
0.0
  0
POLYLINE
  5
248
100
AcDbEntity
  8
A
 62
     7
100
AcDb2dPolyline
 66
     1
 10
0.0
 20
0.0
 30
0.0
 70
     1
  0
VERTEX
  5
249
100
AcDbEntity
  8
A
 62
     7
100
AcDbVertex
100
AcDb2dVertex
 10
189.360707
 20
195.939461
 30
0.0
  0
VERTEX
  5
24A
100
AcDbEntity
  8
A
 62
     7
100
AcDbVertex
100
AcDb2dVertex
 10
49.48673
 20
195.939461
 30
0.0
  0
VERTEX
  5
24B
100
AcDbEntity
  8
A
 62
     7
100
AcDbVertex
100
AcDb2dVertex
 10
49.48673
 20
197.23654
 30
0.0
  0
VERTEX
  5
24C
100
AcDbEntity
  8
A
 62
     7
100
AcDbVertex
100
AcDb2dVertex
 10
189.360707
 20
197.23654
 30
0.0
  0
SEQEND
  5
24D
100
AcDbEntity
  8
A
 62
     7
  0
CIRCLE
  5
247
100
AcDbEntity
  8
A
 62
     7
100
AcDbCircle
 10
177.128206
 20
206.441146
 30
0.0
 40
1.001145
  0
LINE
  5
246
100
AcDbEntity
  8
A
 62
     7
100
AcDbLine
 10
177.159901
 20
211.390542
 30
0.0
 11
177.159901
 21
209.102654
 31
0.0
  0
LINE
  5
245
100
AcDbEntity
  8
A
 62
     7
100
AcDbLine
 10
190.911344
 20
219.102733
 30
0.0
 11
191.003328
 21
234.983245
 31
0.0
  0
LINE
  5
244
100
AcDbEntity
  8
A
 62
     7
100
AcDbLine
 10
189.360362
 20
231.932441
 30
0.0
 11
199.920958
 21
231.932441
 31
0.0
  0
MTEXT
  5
243
100
AcDbEntity
  8
A
 62
     7
100
AcDbMText
 10
194.719553
 20
236.992568
 30
0.0
 40
4.364735
 41
0.0
 71
     1
 72
     2
  1
\W0.94;\fMS Gothic|b0|i0|c128;3
  7
STD
210
0.0
220
0.0
230
1.0
 11
1.000001
 21
0.0
 31
0.0
 73
     1
 44
1.0
  0
POLYLINE
  5
23D
100
AcDbEntity
  8
A
 62
     7
100
AcDb2dPolyline
 66
     1
 10
0.0
 20
0.0
 30
0.0
  0
VERTEX
  5
23E
100
AcDbEntity
  8
A
 62
     7
100
AcDbVertex
100
AcDb2dVertex
 10
4.713235
 20
52.561822
 30
0.0
  0
VERTEX
  5
23F
100
AcDbEntity
  8
A
 62
     7
100
AcDbVertex
100
AcDb2dVertex
 10
4.713063
 20
177.885611
 30
0.0
  0
VERTEX
  5
240
100
AcDbEntity
  8
A
 62
     7
100
AcDbVertex
100
AcDb2dVertex
 10
31.465607
 20
177.885611
 30
0.0
  0
VERTEX
  5
241
100
AcDbEntity
  8
A
 62
     7
100
AcDbVertex
100
AcDb2dVertex
 10
31.46578
 20
52.561822
 30
0.0
  0
SEQEND
  5
242
100
AcDbEntity
  8
A
 62
     7
  0
LINE
  5
23C
100
AcDbEntity
  8
A
 62
     7
100
AcDbLine
 10
4.713235
 20
52.561822
 30
0.0
 11
5.886462
 21
52.737866
 31
0.0
  0
LINE
  5
23B
100
AcDbEntity
  8
A
 62
     7
100
AcDbLine
 10
5.886462
 20
52.737866
 30
0.0
 11
5.886462
 21
50.508545
 31
0.0
  0
LINE
  5
23A
100
AcDbEntity
  8
A
 62
     7
100
AcDbLine
 10
5.886462
 20
50.508545
 30
0.0
 11
30.526991
 21
50.508545
 31
0.0
  0
LINE
  5
239
100
AcDbEntity
  8
A
 62
     7
100
AcDbLine
 10
30.526991
 20
50.7435
 30
0.0
 11
30.526991
 21
61.420885
 31
0.0
  0
LINE
  5
238
100
AcDbEntity
  8
A
 62
     7
100
AcDbLine
 10
30.526991
 20
61.420885
 30
0.0
 11
31.230996
 21
61.420885
 31
0.0
  0
LINE
  5
237
100
AcDbEntity
  8
A
 62
     7
100
AcDbLine
 10
4.713235
 20
52.561822
 30
0.0
 11
4.244013
 21
52.151166
 31
0.0
  0
LINE
  5
236
100
AcDbEntity
  8
A
 62
     7
100
AcDbLine
 10
4.244013
 20
52.151166
 30
0.0
 11
4.244013
 21
49.452968
 31
0.0
  0
LINE
  5
235
100
AcDbEntity
  8
A
 62
     7
100
AcDbLine
 10
4.244013
 20
49.452968
 30
0.0
 11
31.935002
 21
49.452968
 31
0.0
  0
LINE
  5
234
100
AcDbEntity
  8
A
 62
     7
100
AcDbLine
 10
31.935002
 20
49.452968
 30
0.0
 11
31.935002
 21
52.034033
 31
0.0
  0
LINE
  5
233
100
AcDbEntity
  8
A
 62
     7
100
AcDbLine
 10
31.935002
 20
52.034033
 30
0.0
 11
31.46578
 21
52.561822
 31
0.0
  0
POLYLINE
  5
22D
100
AcDbEntity
  8
A
 62
     7
100
AcDb2dPolyline
 66
     1
 10
0.0
 20
0.0
 30
0.0
 70
     1
  0
VERTEX
  5
22E
100
AcDbEntity
  8
A
 62
     7
100
AcDbVertex
100
AcDb2dVertex
 10
25.991867
 20
49.480873
 30
0.0
  0
VERTEX
  5
22F
100
AcDbEntity
  8
A
 62
     7
100
AcDbVertex
100
AcDb2dVertex
 10
25.991867
 20
44.320464
 30
0.0
  0
VERTEX
  5
230
100
AcDbEntity
  8
A
 62
     7
100
AcDbVertex
100
AcDb2dVertex
 10
11.401371
 20
45.737088
 30
0.0
  0
VERTEX
  5
231
100
AcDbEntity
  8
A
 62
     7
100
AcDbVertex
100
AcDb2dVertex
 10
11.173823
 20
49.480873
 30
0.0
  0
SEQEND
  5
232
100
AcDbEntity
  8
A
 62
     7
  0
INSERT
  5
21C
100
AcDbEntity
  8
A
 62
     7
100
AcDbBlockReference
  2
AI9-BLK10
 10
9.72938
 20
60.04233
 30
0.0
  0
INSERT
  5
20A
100
AcDbEntity
  8
A
 62
     7
100
AcDbBlockReference
  2
AI9-BLK9
 10
27.32977
 20
60.04233
 30
0.0
  0
INSERT
  5
1F8
100
AcDbEntity
  8
A
 62
     7
100
AcDbBlockReference
  2
AI9-BLK8
 10
28.209561
 20
169.868615
 30
0.0
  0
HATCH
  5
1F6
100
AcDbEntity
  8
A
 62
     7
100
AcDbHatch
 10
0.0
 20
0.0
 30
0.0
210
0.0
220
0.0
230
1.0
  2
SOLID
 70
     1
 71
     0
 91
        1
 92
        3
 72
     0
 73
     1
 93
        4
 10
31.531925455729162
 20
156.36857774522568
 10
31.531925455729162
 20
166.66820746527776
 10
32.812811957465271
 20
165.72373453776041
 10
32.812811957465271
 20
157.1907497829861
 97
        0
 75
     0
 76
     1
 98
        1
 10
0.0
 20
0.0
  0
HATCH
  5
1F5
100
AcDbEntity
  8
A
 62
     7
100
AcDbHatch
 10
0.0
 20
0.0
 30
0.0
210
0.0
220
0.0
230
1.0
  2
SOLID
 70
     1
 71
     0
 91
        1
 92
        3
 72
     0
 73
     1
 93
        4
 10
31.532269965277774
 20
62.558110894097219
 10
31.532269965277774
 20
72.858257378472217
 10
32.812984212239577
 20
71.913612196180551
 10
32.812984212239577
 20
63.380455186631941
 97
        0
 75
     0
 76
     1
 98
        1
 10
0.0
 20
0.0
  0
INSERT
  5
1E2
100
AcDbEntity
  8
A
 62
     7
100
AcDbBlockReference
  2
AI9-BLK7
 10
16.96477
 20
121.679911
 30
0.0
  0
LINE
  5
1E0
100
AcDbEntity
  8
A
 62
     7
100
AcDbLine
 10
9.817144
 20
184.948745
 30
0.0
 11
15.039909
 21
184.923941
 31
0.0
  0
LINE
  5
1DF
100
AcDbEntity
  8
A
 62
     7
100
AcDbLine
 10
8.83822
 20
178.849893
 30
0.0
 11
15.961472
 21
178.816131
 31
0.0
  0
LINE
  5
1DE
100
AcDbEntity
  8
A
 62
     7
100
AcDbLine
 10
9.408728
 20
183.16987
 30
0.0
 11
9.808531
 21
183.167976
 31
0.0
  0
POLYLINE
  5
1D9
100
AcDbEntity
  8
A
 62
     7
100
AcDb2dPolyline
 66
     1
 10
0.0
 20
0.0
 30
0.0
  0
VERTEX
  5
1DA
100
AcDbEntity
  8
A
 62
     7
100
AcDbVertex
100
AcDb2dVertex
 10
9.40356
 20
182.069162
 30
0.0
  0
VERTEX
  5
1DB
100
AcDbEntity
  8
A
 62
     7
100
AcDbVertex
100
AcDb2dVertex
 10
9.803364
 20
182.067268
 30
0.0
  0
VERTEX
  5
1DC
100
AcDbEntity
  8
A
 62
     7
100
AcDbVertex
100
AcDb2dVertex
 10
9.787689
 20
178.845414
 30
0.0
  0
SEQEND
  5
1DD
100
AcDbEntity
  8
A
 62
     7
  0
LINE
  5
1D8
100
AcDbEntity
  8
A
 62
     7
100
AcDbLine
 10
9.817144
 20
184.948745
 30
0.0
 11
9.808531
 21
183.167976
 31
0.0
  0
LINE
  5
1D7
100
AcDbEntity
  8
A
 62
     7
100
AcDbLine
 10
9.408728
 20
183.16987
 30
0.0
 11
9.40356
 21
182.069162
 31
0.0
  0
LINE
  5
1D6
100
AcDbEntity
  8
A
 62
     7
100
AcDbLine
 10
8.83822
 20
178.849893
 30
0.0
 11
8.83512
 21
178.218751
 31
0.0
  0
LINE
  5
1D5
100
AcDbEntity
  8
A
 62
     7
100
AcDbLine
 10
15.031296
 20
183.143171
 30
0.0
 11
15.429549
 21
183.141276
 31
0.0
  0
LINE
  5
1D4
100
AcDbEntity
  8
A
 62
     7
100
AcDbLine
 10
15.025784
 20
182.042463
 30
0.0
 11
15.424382
 21
182.040568
 31
0.0
  0
LINE
  5
1D3
100
AcDbEntity
  8
A
 62
     7
100
AcDbLine
 10
15.961472
 20
178.816131
 30
0.0
 11
15.958371
 21
178.1843
 31
0.0
  0
LINE
  5
1D2
100
AcDbEntity
  8
A
 62
     7
100
AcDbLine
 10
15.429549
 20
183.141276
 30
0.0
 11
15.424382
 21
182.040568
 31
0.0
  0
LINE
  5
1D1
100
AcDbEntity
  8
A
 62
     7
100
AcDbLine
 10
15.025784
 20
182.042463
 30
0.0
 11
15.010626
 21
178.820265
 31
0.0
  0
LINE
  5
1D0
100
AcDbEntity
  8
A
 62
     7
100
AcDbLine
 10
15.039909
 20
184.923941
 30
0.0
 11
15.031296
 21
183.143171
 31
0.0
  0
LINE
  5
1CF
100
AcDbEntity
  8
A
 62
     7
100
AcDbLine
 10
21.504286
 20
184.892763
 30
0.0
 11
26.726706
 21
184.867786
 31
0.0
  0
LINE
  5
1CE
100
AcDbEntity
  8
A
 62
     7
100
AcDbLine
 10
50.200898
 20
54.026676
 30
0.0
 11
189.830273
 21
54.026676
 31
0.0
  0
LINE
  5
1CD
100
AcDbEntity
  8
A
 62
     7
100
AcDbLine
 10
50.083937
 20
49.604552
 30
0.0
 11
189.946718
 21
49.604552
 31
0.0
  0
POLYLINE
  5
1C7
100
AcDbEntity
  8
A
 62
     7
100
AcDb2dPolyline
 66
     1
 10
0.0
 20
0.0
 30
0.0
  0
VERTEX
  5
1C8
100
AcDbEntity
  8
A
 62
     7
100
AcDbVertex
100
AcDb2dVertex
 10
50.083937
 20
49.897729
 30
0.0
  0
VERTEX
  5
1C9
100
AcDbEntity
  8
A
 62
     7
100
AcDbVertex
100
AcDb2dVertex
 10
50.083248
 20
178.037539
 30
0.0
  0
VERTEX
  5
1CA
100
AcDbEntity
  8
A
 62
     7
100
AcDbVertex
100
AcDb2dVertex
 10
189.946029
 20
178.037539
 30
0.0
  0
VERTEX
  5
1CB
100
AcDbEntity
  8
A
 62
     7
100
AcDbVertex
100
AcDb2dVertex
 10
189.946718
 20
49.897729
 30
0.0
  0
SEQEND
  5
1CC
100
AcDbEntity
  8
A
 62
     7
  0
LINE
  5
1C6
100
AcDbEntity
  8
A
 62
     7
100
AcDbLine
 10
58.111698
 20
184.735149
 30
0.0
 11
63.334463
 21
184.710345
 31
0.0
  0
LINE
  5
1C5
100
AcDbEntity
  8
A
 62
     7
100
AcDbLine
 10
57.132602
 20
178.636297
 30
0.0
 11
64.256026
 21
178.602535
 31
0.0
  0
LINE
  5
1C4
100
AcDbEntity
  8
A
 62
     7
100
AcDbLine
 10
57.703455
 20
182.956102
 30
0.0
 11
58.103258
 21
182.954552
 31
0.0
  0
POLYLINE
  5
1BF
100
AcDbEntity
  8
A
 62
     7
100
AcDb2dPolyline
 66
     1
 10
0.0
 20
0.0
 30
0.0
  0
VERTEX
  5
1C0
100
AcDbEntity
  8
A
 62
     7
100
AcDbVertex
100
AcDb2dVertex
 10
57.698287
 20
181.855394
 30
0.0
  0
VERTEX
  5
1C1
100
AcDbEntity
  8
A
 62
     7
100
AcDbVertex
100
AcDb2dVertex
 10
58.09809
 20
181.853327
 30
0.0
  0
VERTEX
  5
1C2
100
AcDbEntity
  8
A
 62
     7
100
AcDbVertex
100
AcDb2dVertex
 10
58.082243
 20
178.631818
 30
0.0
  0
SEQEND
  5
1C3
100
AcDbEntity
  8
A
 62
     7
  0
LINE
  5
1BE
100
AcDbEntity
  8
A
 62
     7
100
AcDbLine
 10
58.111698
 20
184.735149
 30
0.0
 11
58.103258
 21
182.954552
 31
0.0
  0
LINE
  5
1BD
100
AcDbEntity
  8
A
 62
     7
100
AcDbLine
 10
57.703455
 20
182.956102
 30
0.0
 11
57.698287
 21
181.855394
 31
0.0
  0
LINE
  5
1BC
100
AcDbEntity
  8
A
 62
     7
100
AcDbLine
 10
57.132602
 20
178.636297
 30
0.0
 11
57.129674
 21
178.004983
 31
0.0
  0
LINE
  5
1BB
100
AcDbEntity
  8
A
 62
     7
100
AcDbLine
 10
63.32585
 20
182.929403
 30
0.0
 11
63.724276
 21
182.927508
 31
0.0
  0
LINE
  5
1BA
100
AcDbEntity
  8
A
 62
     7
100
AcDbLine
 10
63.320338
 20
181.828695
 30
0.0
 11
63.719108
 21
181.8268
 31
0.0
  0
LINE
  5
1B9
100
AcDbEntity
  8
A
 62
     7
100
AcDbLine
 10
64.256026
 20
178.602535
 30
0.0
 11
64.252926
 21
177.970532
 31
0.0
  0
LINE
  5
1B8
100
AcDbEntity
  8
A
 62
     7
100
AcDbLine
 10
63.724276
 20
182.927508
 30
0.0
 11
63.719108
 21
181.8268
 31
0.0
  0
LINE
  5
1B7
100
AcDbEntity
  8
A
 62
     7
100
AcDbLine
 10
63.320338
 20
181.828695
 30
0.0
 11
63.305352
 21
178.606669
 31
0.0
  0
LINE
  5
1B6
100
AcDbEntity
  8
A
 62
     7
100
AcDbLine
 10
63.334463
 20
184.710345
 30
0.0
 11
63.32585
 21
182.929403
 31
0.0
  0
LINE
  5
1B5
100
AcDbEntity
  8
A
 62
     7
100
AcDbLine
 10
71.62698
 20
184.678994
 30
0.0
 11
76.8494
 21
184.654017
 31
0.0
  0
LINE
  5
1B4
100
AcDbEntity
  8
A
 62
     7
100
AcDbLine
 10
70.647712
 20
178.580142
 30
0.0
 11
77.77148
 21
178.546035
 31
0.0
  0
LINE
  5
1B3
100
AcDbEntity
  8
A
 62
     7
100
AcDbLine
 10
71.218392
 20
182.900119
 30
0.0
 11
71.618023
 21
182.898569
 31
0.0
  0
POLYLINE
  5
1AE
100
AcDbEntity
  8
A
 62
     7
100
AcDb2dPolyline
 66
     1
 10
0.0
 20
0.0
 30
0.0
  0
VERTEX
  5
1AF
100
AcDbEntity
  8
A
 62
     7
100
AcDbVertex
100
AcDb2dVertex
 10
71.212708
 20
181.799411
 30
0.0
  0
VERTEX
  5
1B0
100
AcDbEntity
  8
A
 62
     7
100
AcDbVertex
100
AcDb2dVertex
 10
71.612855
 20
181.797517
 30
0.0
  0
VERTEX
  5
1B1
100
AcDbEntity
  8
A
 62
     7
100
AcDbVertex
100
AcDb2dVertex
 10
71.597525
 20
178.575663
 30
0.0
  0
SEQEND
  5
1B2
100
AcDbEntity
  8
A
 62
     7
  0
LINE
  5
1AD
100
AcDbEntity
  8
A
 62
     7
100
AcDbLine
 10
71.62698
 20
184.678994
 30
0.0
 11
71.618023
 21
182.898569
 31
0.0
  0
LINE
  5
1AC
100
AcDbEntity
  8
A
 62
     7
100
AcDbLine
 10
71.218392
 20
182.900119
 30
0.0
 11
71.212708
 21
181.799411
 31
0.0
  0
LINE
  5
1AB
100
AcDbEntity
  8
A
 62
     7
100
AcDbLine
 10
70.647712
 20
178.580142
 30
0.0
 11
70.644611
 21
177.949
 31
0.0
  0
LINE
  5
1AA
100
AcDbEntity
  8
A
 62
     7
100
AcDbLine
 10
76.84096
 20
182.873248
 30
0.0
 11
77.239213
 21
182.871697
 31
0.0
  0
LINE
  5
1A9
100
AcDbEntity
  8
A
 62
     7
100
AcDbLine
 10
76.835792
 20
181.77254
 30
0.0
 11
77.234218
 21
181.770473
 31
0.0
  0
LINE
  5
1A8
100
AcDbEntity
  8
A
 62
     7
100
AcDbLine
 10
77.77148
 20
178.546035
 30
0.0
 11
77.76838
 21
177.914549
 31
0.0
  0
LINE
  5
1A7
100
AcDbEntity
  8
A
 62
     7
100
AcDbLine
 10
77.239213
 20
182.871697
 30
0.0
 11
77.234218
 21
181.770473
 31
0.0
  0
LINE
  5
1A6
100
AcDbEntity
  8
A
 62
     7
100
AcDbLine
 10
76.835792
 20
181.77254
 30
0.0
 11
76.820117
 21
178.550514
 31
0.0
  0
LINE
  5
1A5
100
AcDbEntity
  8
A
 62
     7
100
AcDbLine
 10
76.8494
 20
184.654017
 30
0.0
 11
76.84096
 21
182.873248
 31
0.0
  0
LINE
  5
1A4
100
AcDbEntity
  8
A
 62
     7
100
AcDbLine
 10
85.379974
 20
184.735149
 30
0.0
 11
90.602911
 21
184.710345
 31
0.0
  0
LINE
  5
1A3
100
AcDbEntity
  8
A
 62
     7
100
AcDbLine
 10
84.40105
 20
178.636297
 30
0.0
 11
91.524474
 21
178.602535
 31
0.0
  0
LINE
  5
1A2
100
AcDbEntity
  8
A
 62
     7
100
AcDbLine
 10
84.97173
 20
182.956102
 30
0.0
 11
85.371533
 21
182.954552
 31
0.0
  0
POLYLINE
  5
19D
100
AcDbEntity
  8
A
 62
     7
100
AcDb2dPolyline
 66
     1
 10
0.0
 20
0.0
 30
0.0
  0
VERTEX
  5
19E
100
AcDbEntity
  8
A
 62
     7
100
AcDbVertex
100
AcDb2dVertex
 10
84.966562
 20
181.855394
 30
0.0
  0
VERTEX
  5
19F
100
AcDbEntity
  8
A
 62
     7
100
AcDbVertex
100
AcDb2dVertex
 10
85.366193
 20
181.853327
 30
0.0
  0
VERTEX
  5
1A0
100
AcDbEntity
  8
A
 62
     7
100
AcDbVertex
100
AcDb2dVertex
 10
85.350346
 20
178.631818
 30
0.0
  0
SEQEND
  5
1A1
100
AcDbEntity
  8
A
 62
     7
  0
LINE
  5
19C
100
AcDbEntity
  8
A
 62
     7
100
AcDbLine
 10
85.379974
 20
184.735149
 30
0.0
 11
85.371533
 21
182.954552
 31
0.0
  0
LINE
  5
19B
100
AcDbEntity
  8
A
 62
     7
100
AcDbLine
 10
84.97173
 20
182.956102
 30
0.0
 11
84.966562
 21
181.855394
 31
0.0
  0
LINE
  5
19A
100
AcDbEntity
  8
A
 62
     7
100
AcDbLine
 10
84.40105
 20
178.636297
 30
0.0
 11
84.397949
 21
178.004983
 31
0.0
  0
LINE
  5
199
100
AcDbEntity
  8
A
 62
     7
100
AcDbLine
 10
90.594126
 20
182.929403
 30
0.0
 11
90.992551
 21
182.927508
 31
0.0
  0
LINE
  5
198
100
AcDbEntity
  8
A
 62
     7
100
AcDbLine
 10
90.588786
 20
181.828695
 30
0.0
 11
90.987383
 21
181.8268
 31
0.0
  0
LINE
  5
197
100
AcDbEntity
  8
A
 62
     7
100
AcDbLine
 10
91.524474
 20
178.602535
 30
0.0
 11
91.521373
 21
177.970532
 31
0.0
  0
LINE
  5
196
100
AcDbEntity
  8
A
 62
     7
100
AcDbLine
 10
90.992551
 20
182.927508
 30
0.0
 11
90.987383
 21
181.8268
 31
0.0
  0
LINE
  5
195
100
AcDbEntity
  8
A
 62
     7
100
AcDbLine
 10
90.588786
 20
181.828695
 30
0.0
 11
90.573627
 21
178.606669
 31
0.0
  0
LINE
  5
194
100
AcDbEntity
  8
A
 62
     7
100
AcDbLine
 10
90.602911
 20
184.710345
 30
0.0
 11
90.594126
 21
182.929403
 31
0.0
  0
LINE
  5
193
100
AcDbEntity
  8
A
 62
     7
100
AcDbLine
 10
98.8956
 20
184.678994
 30
0.0
 11
104.117676
 21
184.654017
 31
0.0
  0
LINE
  5
192
100
AcDbEntity
  8
A
 62
     7
100
AcDbLine
 10
97.915987
 20
178.580142
 30
0.0
 11
105.039583
 21
178.546035
 31
0.0
  0
LINE
  5
191
100
AcDbEntity
  8
A
 62
     7
100
AcDbLine
 10
98.486667
 20
182.900119
 30
0.0
 11
98.886298
 21
182.898569
 31
0.0
  0
POLYLINE
  5
18C
100
AcDbEntity
  8
A
 62
     7
100
AcDb2dPolyline
 66
     1
 10
0.0
 20
0.0
 30
0.0
  0
VERTEX
  5
18D
100
AcDbEntity
  8
A
 62
     7
100
AcDbVertex
100
AcDb2dVertex
 10
98.481155
 20
181.799411
 30
0.0
  0
VERTEX
  5
18E
100
AcDbEntity
  8
A
 62
     7
100
AcDbVertex
100
AcDb2dVertex
 10
98.881475
 20
181.797517
 30
0.0
  0
VERTEX
  5
18F
100
AcDbEntity
  8
A
 62
     7
100
AcDbVertex
100
AcDb2dVertex
 10
98.8658
 20
178.575663
 30
0.0
  0
SEQEND
  5
190
100
AcDbEntity
  8
A
 62
     7
  0
LINE
  5
18B
100
AcDbEntity
  8
A
 62
     7
100
AcDbLine
 10
98.8956
 20
184.678994
 30
0.0
 11
98.886298
 21
182.898569
 31
0.0
  0
LINE
  5
18A
100
AcDbEntity
  8
A
 62
     7
100
AcDbLine
 10
98.486667
 20
182.900119
 30
0.0
 11
98.481155
 21
181.799411
 31
0.0
  0
LINE
  5
189
100
AcDbEntity
  8
A
 62
     7
100
AcDbLine
 10
97.915987
 20
178.580142
 30
0.0
 11
97.912887
 21
177.949
 31
0.0
  0
LINE
  5
188
100
AcDbEntity
  8
A
 62
     7
100
AcDbLine
 10
104.109063
 20
182.873248
 30
0.0
 11
104.507661
 21
182.871697
 31
0.0
  0
LINE
  5
187
100
AcDbEntity
  8
A
 62
     7
100
AcDbLine
 10
104.103895
 20
181.77254
 30
0.0
 11
104.502493
 21
181.770473
 31
0.0
  0
LINE
  5
186
100
AcDbEntity
  8
A
 62
     7
100
AcDbLine
 10
105.039583
 20
178.546035
 30
0.0
 11
105.036483
 21
177.914549
 31
0.0
  0
LINE
  5
185
100
AcDbEntity
  8
A
 62
     7
100
AcDbLine
 10
104.507661
 20
182.871697
 30
0.0
 11
104.502493
 21
181.770473
 31
0.0
  0
LINE
  5
184
100
AcDbEntity
  8
A
 62
     7
100
AcDbLine
 10
104.103895
 20
181.77254
 30
0.0
 11
104.088565
 21
178.550514
 31
0.0
  0
LINE
  5
183
100
AcDbEntity
  8
A
 62
     7
100
AcDbLine
 10
104.117676
 20
184.654017
 30
0.0
 11
104.109063
 21
182.873248
 31
0.0
  0
LINE
  5
182
100
AcDbEntity
  8
A
 62
     7
100
AcDbLine
 10
112.648421
 20
184.735149
 30
0.0
 11
117.871186
 21
184.710345
 31
0.0
  0
LINE
  5
181
100
AcDbEntity
  8
A
 62
     7
100
AcDbLine
 10
111.669325
 20
178.636297
 30
0.0
 11
118.792749
 21
178.602535
 31
0.0
  0
LINE
  5
180
100
AcDbEntity
  8
A
 62
     7
100
AcDbLine
 10
112.239833
 20
182.956102
 30
0.0
 11
112.639808
 21
182.954552
 31
0.0
  0
POLYLINE
  5
17B
100
AcDbEntity
  8
A
 62
     7
100
AcDb2dPolyline
 66
     1
 10
0.0
 20
0.0
 30
0.0
  0
VERTEX
  5
17C
100
AcDbEntity
  8
A
 62
     7
100
AcDbVertex
100
AcDb2dVertex
 10
112.23501
 20
181.855394
 30
0.0
  0
VERTEX
  5
17D
100
AcDbEntity
  8
A
 62
     7
100
AcDbVertex
100
AcDb2dVertex
 10
112.634641
 20
181.853327
 30
0.0
  0
VERTEX
  5
17E
100
AcDbEntity
  8
A
 62
     7
100
AcDbVertex
100
AcDb2dVertex
 10
112.618793
 20
178.631818
 30
0.0
  0
SEQEND
  5
17F
100
AcDbEntity
  8
A
 62
     7
  0
LINE
  5
17A
100
AcDbEntity
  8
A
 62
     7
100
AcDbLine
 10
112.648421
 20
184.735149
 30
0.0
 11
112.639808
 21
182.954552
 31
0.0
  0
LINE
  5
179
100
AcDbEntity
  8
A
 62
     7
100
AcDbLine
 10
112.239833
 20
182.956102
 30
0.0
 11
112.23501
 21
181.855394
 31
0.0
  0
LINE
  5
178
100
AcDbEntity
  8
A
 62
     7
100
AcDbLine
 10
111.3038
 20
178.636297
 30
0.0
 11
111.300355
 21
178.004983
 31
0.0
  0
LINE
  5
177
100
AcDbEntity
  8
A
 62
     7
100
AcDbLine
 10
117.862573
 20
182.929403
 30
0.0
 11
118.260826
 21
182.927508
 31
0.0
  0
LINE
  5
176
100
AcDbEntity
  8
A
 62
     7
100
AcDbLine
 10
117.856717
 20
181.828695
 30
0.0
 11
118.255659
 21
181.8268
 31
0.0
  0
LINE
  5
175
100
AcDbEntity
  8
A
 62
     7
100
AcDbLine
 10
118.792749
 20
178.602535
 30
0.0
 11
118.789304
 21
177.970532
 31
0.0
  0
LINE
  5
174
100
AcDbEntity
  8
A
 62
     7
100
AcDbLine
 10
118.260826
 20
182.927508
 30
0.0
 11
118.255659
 21
181.8268
 31
0.0
  0
LINE
  5
173
100
AcDbEntity
  8
A
 62
     7
100
AcDbLine
 10
117.856717
 20
181.828695
 30
0.0
 11
117.841558
 21
178.606669
 31
0.0
  0
LINE
  5
172
100
AcDbEntity
  8
A
 62
     7
100
AcDbLine
 10
117.871186
 20
184.710345
 30
0.0
 11
117.862573
 21
182.929403
 31
0.0
  0
LINE
  5
171
100
AcDbEntity
  8
A
 62
     7
100
AcDbLine
 10
126.163531
 20
184.678994
 30
0.0
 11
131.385607
 21
184.654017
 31
0.0
  0
LINE
  5
170
100
AcDbEntity
  8
A
 62
     7
100
AcDbLine
 10
125.18409
 20
178.580142
 30
0.0
 11
132.307859
 21
178.546035
 31
0.0
  0
LINE
  5
16F
100
AcDbEntity
  8
A
 62
     7
100
AcDbLine
 10
125.754598
 20
182.900119
 30
0.0
 11
126.154574
 21
182.898569
 31
0.0
  0
POLYLINE
  5
16A
100
AcDbEntity
  8
A
 62
     7
100
AcDb2dPolyline
 66
     1
 10
0.0
 20
0.0
 30
0.0
  0
VERTEX
  5
16B
100
AcDbEntity
  8
A
 62
     7
100
AcDbVertex
100
AcDb2dVertex
 10
125.749086
 20
181.799411
 30
0.0
  0
VERTEX
  5
16C
100
AcDbEntity
  8
A
 62
     7
100
AcDbVertex
100
AcDb2dVertex
 10
126.149061
 20
181.797517
 30
0.0
  0
VERTEX
  5
16D
100
AcDbEntity
  8
A
 62
     7
100
AcDbVertex
100
AcDb2dVertex
 10
126.134248
 20
178.575663
 30
0.0
  0
SEQEND
  5
16E
100
AcDbEntity
  8
A
 62
     7
  0
LINE
  5
169
100
AcDbEntity
  8
A
 62
     7
100
AcDbLine
 10
126.163531
 20
184.678994
 30
0.0
 11
126.154574
 21
182.898569
 31
0.0
  0
LINE
  5
168
100
AcDbEntity
  8
A
 62
     7
100
AcDbLine
 10
125.754598
 20
182.900119
 30
0.0
 11
125.749086
 21
181.799411
 31
0.0
  0
LINE
  5
167
100
AcDbEntity
  8
A
 62
     7
100
AcDbLine
 10
125.18409
 20
178.580142
 30
0.0
 11
125.18099
 21
177.949
 31
0.0
  0
LINE
  5
166
100
AcDbEntity
  8
A
 62
     7
100
AcDbLine
 10
131.377338
 20
182.873248
 30
0.0
 11
131.775591
 21
182.871697
 31
0.0
  0
LINE
  5
165
100
AcDbEntity
  8
A
 62
     7
100
AcDbLine
 10
131.372171
 20
181.77254
 30
0.0
 11
131.770768
 21
181.770473
 31
0.0
  0
LINE
  5
164
100
AcDbEntity
  8
A
 62
     7
100
AcDbLine
 10
132.307859
 20
178.546035
 30
0.0
 11
132.304758
 21
177.914549
 31
0.0
  0
LINE
  5
163
100
AcDbEntity
  8
A
 62
     7
100
AcDbLine
 10
131.775591
 20
182.871697
 30
0.0
 11
131.770768
 21
181.770473
 31
0.0
  0
LINE
  5
162
100
AcDbEntity
  8
A
 62
     7
100
AcDbLine
 10
131.372171
 20
181.77254
 30
0.0
 11
131.356668
 21
178.550514
 31
0.0
  0
LINE
  5
161
100
AcDbEntity
  8
A
 62
     7
100
AcDbLine
 10
131.385607
 20
184.654017
 30
0.0
 11
131.377338
 21
182.873248
 31
0.0
  0
LINE
  5
160
100
AcDbEntity
  8
A
 62
     7
100
AcDbLine
 10
139.916352
 20
184.735149
 30
0.0
 11
145.139117
 21
184.710345
 31
0.0
  0
LINE
  5
15F
100
AcDbEntity
  8
A
 62
     7
100
AcDbLine
 10
138.937256
 20
178.636297
 30
0.0
 11
146.06068
 21
178.602535
 31
0.0
  0
LINE
  5
15E
100
AcDbEntity
  8
A
 62
     7
100
AcDbLine
 10
139.508108
 20
182.956102
 30
0.0
 11
139.908084
 21
182.954552
 31
0.0
  0
POLYLINE
  5
159
100
AcDbEntity
  8
A
 62
     7
100
AcDb2dPolyline
 66
     1
 10
0.0
 20
0.0
 30
0.0
  0
VERTEX
  5
15A
100
AcDbEntity
  8
A
 62
     7
100
AcDbVertex
100
AcDb2dVertex
 10
139.503285
 20
181.855394
 30
0.0
  0
VERTEX
  5
15B
100
AcDbEntity
  8
A
 62
     7
100
AcDbVertex
100
AcDb2dVertex
 10
139.902572
 20
181.853327
 30
0.0
  0
VERTEX
  5
15C
100
AcDbEntity
  8
A
 62
     7
100
AcDbVertex
100
AcDb2dVertex
 10
139.886724
 20
178.631818
 30
0.0
  0
SEQEND
  5
15D
100
AcDbEntity
  8
A
 62
     7
  0
LINE
  5
158
100
AcDbEntity
  8
A
 62
     7
100
AcDbLine
 10
139.916352
 20
184.735149
 30
0.0
 11
139.908084
 21
182.954552
 31
0.0
  0
LINE
  5
157
100
AcDbEntity
  8
A
 62
     7
100
AcDbLine
 10
139.508108
 20
182.956102
 30
0.0
 11
139.503285
 21
181.855394
 31
0.0
  0
LINE
  5
156
100
AcDbEntity
  8
A
 62
     7
100
AcDbLine
 10
138.937256
 20
178.636297
 30
0.0
 11
138.934844
 21
178.004983
 31
0.0
  0
LINE
  5
155
100
AcDbEntity
  8
A
 62
     7
100
AcDbLine
 10
145.13016
 20
182.929403
 30
0.0
 11
145.529102
 21
182.927508
 31
0.0
  0
LINE
  5
154
100
AcDbEntity
  8
A
 62
     7
100
AcDbLine
 10
145.124992
 20
181.828695
 30
0.0
 11
145.523934
 21
181.8268
 31
0.0
  0
LINE
  5
153
100
AcDbEntity
  8
A
 62
     7
100
AcDbLine
 10
146.06068
 20
178.602535
 30
0.0
 11
146.057924
 21
177.970532
 31
0.0
  0
LINE
  5
152
100
AcDbEntity
  8
A
 62
     7
100
AcDbLine
 10
145.529102
 20
182.927508
 30
0.0
 11
145.523934
 21
181.8268
 31
0.0
  0
LINE
  5
151
100
AcDbEntity
  8
A
 62
     7
100
AcDbLine
 10
145.124992
 20
181.828695
 30
0.0
 11
145.110178
 21
178.606669
 31
0.0
  0
LINE
  5
150
100
AcDbEntity
  8
A
 62
     7
100
AcDbLine
 10
145.139117
 20
184.710345
 30
0.0
 11
145.13016
 21
182.929403
 31
0.0
  0
SPLINE
  5
14F
100
AcDbEntity
  8
A
 62
     7
100
AcDbSpline
210
0.0
220
0.0
230
1.0
 70
     8
 71
     3
 72
    11
 73
     7
 74
     0
 42
0.00000001
 43
0.00000001
 40
0.0
 40
0.0
 40
0.0
 40
0.0
 40
1.0
 40
1.0
 40
1.0
 40
2.0
 40
2.0
 40
2.0
 40
2.0
 10
190.01527506510416
 20
61.735422092013884
 30
0.0
 10
190.54892035590277
 20
61.735422092013884
 30
0.0
 10
190.98059082031247
 20
60.83108452690972
 30
0.0
 10
190.98127983940969
 20
59.715218098958331
 30
0.0
 10
190.98127983940969
 20
58.599351671006936
 30
0.0
 10
190.54892035590277
 20
57.695014105902771
 30
0.0
 10
190.01527506510416
 20
57.695014105902771
 30
0.0
  0
SPLINE
  5
14E
100
AcDbEntity
  8
A
 62
     7
100
AcDbSpline
210
0.0
220
0.0
230
1.0
 70
     8
 71
     3
 72
    11
 73
     7
 74
     0
 42
0.00000001
 43
0.00000001
 40
0.0
 40
0.0
 40
0.0
 40
0.0
 40
1.0
 40
1.0
 40
1.0
 40
2.0
 40
2.0
 40
2.0
 40
2.0
 10
189.82786187065972
 20
169.00122612847221
 30
0.0
 10
190.36150716145832
 20
169.00122612847221
 30
0.0
 10
190.79386664496525
 20
168.09688856336805
 30
0.0
 10
190.79386664496525
 20
166.98136664496525
 30
0.0
 10
190.79386664496525
 20
165.86550021701387
 30
0.0
 10
190.36219618055554
 20
164.96064588758679
 30
0.0
 10
189.82855088975694
 20
164.96064588758679
 30
0.0
  0
INSERT
  5
149
100
AcDbEntity
  8
A
 62
     7
100
AcDbBlockReference
  2
AI9-BLK6
 10
49.484663
 20
115.3424
 30
0.0
  0
POLYLINE
  5
142
100
AcDbEntity
  8
A
 62
     7
100
AcDb2dPolyline
 66
     1
 10
0.0
 20
0.0
 30
0.0
 70
     1
  0
VERTEX
  5
143
100
AcDbEntity
  8
A
 62
     7
100
AcDbVertex
100
AcDb2dVertex
 10
175.162779
 20
178.402547
 30
0.0
  0
VERTEX
  5
144
100
AcDbEntity
  8
A
 62
     7
100
AcDbVertex
100
AcDb2dVertex
 10
167.183594
 20
178.402547
 30
0.0
  0
VERTEX
  5
145
100
AcDbEntity
  8
A
 62
     7
100
AcDbVertex
100
AcDb2dVertex
 10
167.183594
 20
179.22403
 30
0.0
  0
VERTEX
  5
146
100
AcDbEntity
  8
A
 62
     7
100
AcDbVertex
100
AcDb2dVertex
 10
175.162779
 20
179.22403
 30
0.0
  0
SEQEND
  5
147
100
AcDbEntity
  8
A
 62
     7
  0
SPLINE
  5
141
100
AcDbEntity
  8
A
 62
     7
100
AcDbSpline
210
0.0
220
0.0
230
1.0
 70
     8
 71
     3
 72
    20
 73
    16
 74
     0
 42
0.00000001
 43
0.00000001
 40
0.0
 40
0.0
 40
0.0
 40
0.0
 40
1.0
 40
1.0
 40
1.0
 40
2.0
 40
2.0
 40
2.0
 40
3.0
 40
3.0
 40
3.0
 40
4.0
 40
4.0
 40
4.0
 40
5.0
 40
5.0
 40
5.0
 40
5.0
 10
178.15725640190971
 20
178.34105224609374
 30
0.0
 10
178.15725640190971
 20
178.34105224609374
 30
0.0
 10
178.15725640190971
 20
178.34105224609374
 30
0.0
 10
178.15725640190971
 20
178.34105224609374
 30
0.0
 10
178.15725640190971
 20
179.02300889756944
 30
0.0
 10
178.71019422743055
 20
179.57577446831596
 30
0.0
 10
179.39197862413192
 20
179.57577446831596
 30
0.0
 10
179.39197862413192
 20
179.57577446831596
 30
0.0
 10
184.90171983506943
 20
179.57577446831596
 30
0.0
 10
184.90171983506943
 20
179.57577446831596
 30
0.0
 10
185.58315972222221
 20
179.57577446831596
 30
0.0
 10
186.13644205729165
 20
179.02300889756944
 30
0.0
 10
186.13644205729165
 20
178.34105224609374
 30
0.0
 10
186.13644205729165
 20
178.34105224609374
 30
0.0
 10
186.13644205729165
 20
178.34105224609374
 30
0.0
 10
186.13644205729165
 20
178.34105224609374
 30
0.0
  0
LINE
  5
140
100
AcDbEntity
  8
A
 62
     7
100
AcDbLine
 10
4.609538
 20
176.968182
 30
0.0
 11
4.609538
 21
198.54137
 31
0.0
  0
LINE
  5
13F
100
AcDbEntity
  8
A
 62
     7
100
AcDbLine
 10
31.301965
 20
176.602485
 30
0.0
 11
31.301965
 21
198.175673
 31
0.0
  0
INSERT
  5
139
100
AcDbEntity
  8
A
 62
     7
100
AcDbBlockReference
  2
AI9-BLK5
 10
17.590055
 20
194.884831
 30
0.0
  0
MTEXT
  5
137
100
AcDbEntity
  8
A
 62
     7
100
AcDbMText
 10
15.213369
 20
201.281695
 30
0.0
 40
3.808822
 41
0.0
 71
     1
 72
     2
  1
\fHGPGothicE|b0|i0|c128;42
  7
STD
210
0.0
220
0.0
230
1.0
 11
1.000001
 21
0.0
 31
0.0
 73
     1
 44
1.0
  0
LINE
  5
136
100
AcDbEntity
  8
A
 62
     7
100
AcDbLine
 10
32.812812
 20
165.723735
 30
0.0
 11
32.764581
 21
198.54137
 31
0.0
  0
LINE
  5
135
100
AcDbEntity
  8
A
 62
     7
100
AcDbLine
 10
32.033187
 20
194.884918
 30
0.0
 11
39.346091
 21
194.884918
 31
0.0
  0
MTEXT
  5
134
100
AcDbEntity
  8
A
 62
     7
100
AcDbMText
 10
37.152254
 20
200.750289
 30
0.0
 40
3.808822
 41
0.0
 71
     1
 72
     2
  1
\fHGPGothicE|b0|i0|c128;2
  7
STD
210
0.0
220
0.0
230
1.0
 11
1.000001
 21
0.0
 31
0.0
 73
     1
 44
1.0
  0
LINE
  5
133
100
AcDbEntity
  8
A
 62
     7
100
AcDbLine
 10
9.817144
 20
184.948745
 30
0.0
 11
44.099462
 21
185.012307
 31
0.0
  0
LINE
  5
132
100
AcDbEntity
  8
A
 62
     7
100
AcDbLine
 10
9.451447
 20
178.001538
 30
0.0
 11
43.733937
 21
178.0651
 31
0.0
  0
INSERT
  5
12C
100
AcDbEntity
  8
A
 62
     7
100
AcDbBlockReference
  2
AI9-BLK4
 10
39.711788
 20
180.990331
 30
0.0
  0
MTEXT
  5
12A
100
AcDbEntity
  8
A
 62
     7
100
AcDbMText
 10
44.334149
 20
178.60909
 30
0.0
 40
3.808822
 41
0.0
 71
     1
 72
     2
  1
\fHGPGothicE|b0|i0|c128;10
  7
STD
210
0.0
220
0.0
230
1.0
 11
0.0005
 21
1.0
 31
0.0
 73
     1
 44
1.0
  0
LINE
  5
129
100
AcDbEntity
  8
A
 62
     7
100
AcDbLine
 10
7.623135
 20
49.659329
 30
0.0
 11
41.905625
 21
49.722719
 31
0.0
  0
INSERT
  5
123
100
AcDbEntity
  8
A
 62
     7
100
AcDbBlockReference
  2
AI9-BLK3
 10
39.711788
 20
114.243759
 30
0.0
  0
MTEXT
  5
121
100
AcDbEntity
  8
A
 62
     7
100
AcDbMText
 10
41.707954
 20
112.862306
 30
0.0
 40
3.808822
 41
0.0
 71
     1
 72
     2
  1
\fHGPGothicE|b0|i0|c128;202
  7
STD
210
0.0
220
0.0
230
1.0
 11
-0.0011
 21
0.999999
 31
0.0
 73
     1
 44
1.0
  0
LINE
  5
120
100
AcDbEntity
  8
A
 62
     7
100
AcDbLine
 10
6.160692
 20
49.659329
 30
0.0
 11
40.443009
 21
49.722719
 31
0.0
  0
LINE
  5
11F
100
AcDbEntity
  8
A
 62
     7
100
AcDbLine
 10
5.794995
 20
44.540262
 30
0.0
 11
41.5401
 21
44.584014
 31
0.0
  0
MTEXT
  5
11E
100
AcDbEntity
  8
A
 62
     7
100
AcDbMText
 10
42.880348
 20
45.823864
 30
0.0
 40
3.808821
 41
0.0
 71
     1
 72
     2
  1
\W0.69;\fHGPGothicE|b0|i0|c128;8
  7
STD
210
0.0
220
0.0
230
1.0
 11
-0.0039
 21
0.999992
 31
0.0
 73
     1
 44
1.0
  0
INSERT
  5
118
100
AcDbEntity
  8
A
 62
     7
100
AcDbBlockReference
  2
AI9-BLK2
 10
39.711788
 20
47.101345
 30
0.0
  0
SPLINE
  5
116
100
AcDbEntity
  8
A
 62
     7
100
AcDbSpline
210
0.0
220
0.0
230
1.0
 70
     8
 71
     3
 72
    20
 73
    16
 74
     0
 42
0.00000001
 43
0.00000001
 40
0.0
 40
0.0
 40
0.0
 40
0.0
 40
1.0
 40
1.0
 40
1.0
 40
2.0
 40
2.0
 40
2.0
 40
3.0
 40
3.0
 40
3.0
 40
4.0
 40
4.0
 40
4.0
 40
5.0
 40
5.0
 40
5.0
 40
5.0
 10
184.87381456163192
 20
49.539095052083326
 30
0.0
 10
184.87381456163192
 20
49.539095052083326
 30
0.0
 10
184.87381456163192
 20
46.219745551215276
 30
0.0
 10
184.87381456163192
 20
46.219745551215276
 30
0.0
 10
184.87381456163192
 20
45.798410373263884
 30
0.0
 10
184.40941569010414
 20
45.456656901041661
 30
0.0
 10
183.83718532986109
 20
45.456656901041661
 30
0.0
 10
183.83718532986109
 20
45.456656901041661
 30
0.0
 10
170.30932888454859
 20
45.456656901041661
 30
0.0
 10
170.30932888454859
 20
45.456656901041661
 30
0.0
 10
169.73709852430554
 20
45.456656901041661
 30
0.0
 10
169.27269965277776
 20
45.798410373263884
 30
0.0
 10
169.27269965277776
 20
46.219745551215276
 30
0.0
 10
169.27269965277776
 20
46.219745551215276
 30
0.0
 10
169.27269965277776
 20
49.539095052083326
 30
0.0
 10
169.27269965277776
 20
49.539095052083326
 30
0.0
  0
MTEXT
  5
115
100
AcDbEntity
  8
A
 62
     7
100
AcDbMText
 10
7.389902
 20
287.186701
 30
0.0
 40
3.808822
 41
0.0
 71
     1
 72
     2
  1
\fHGPGothicE|b0|i0|c128;映像分配装置　　TVD-16（1入力6分配）
  7
KANJISTD
210
0.0
220
0.0
230
1.0
 11
1.000001
 21
0.0
 31
0.0
 73
     1
 44
1.0
  0
LINE
  5
114
100
AcDbEntity
  8
A
 62
     7
100
AcDbLine
 10
48.036344
 20
219.455511
 30
0.0
 11
48.128328
 21
235.336023
 31
0.0
  0
LINE
  5
113
100
AcDbEntity
  8
A
 62
     7
100
AcDbLine
 10
38.724251
 20
232.285219
 30
0.0
 11
49.284847
 21
232.285219
 31
0.0
  0
MTEXT
  5
112
100
AcDbEntity
  8
A
 62
     7
100
AcDbMText
 10
40.849703
 20
237.404257
 30
0.0
 40
4.364735
 41
0.0
 71
     1
 72
     2
  1
\W0.94;\fMS Gothic|b0|i0|c128;3
  7
STD
210
0.0
220
0.0
230
1.0
 11
1.000001
 21
0.0
 31
0.0
 73
     1
 44
1.0
  0
MTEXT
  5
10B
100
AcDbEntity
  8
0
 62
     7
100
AcDbMText
 10
54.733955
 20
30.73523
 30
0.0
 40
1.571463
 41
0.0
 71
     1
 72
     2
  1
\fMS Mincho|b0|i0|c128;POWER
  7
STD
210
0.0
220
0.0
230
1.0
 11
1.000001
 21
0.0
 31
0.0
 73
     1
 44
1.0
  0
MTEXT
  5
10A
100
AcDbEntity
  8
0
 62
     7
100
AcDbMText
 10
67.758138
 20
30.559186
 30
0.0
 40
1.571463
 41
0.0
 71
     1
 72
     2
  1
\fMS Mincho|b0|i0|c128;FUSE
  7
STD
210
0.0
220
0.0
230
1.0
 11
1.000001
 21
0.0
 31
0.0
 73
     1
 44
1.0
  0
MTEXT
  5
109
100
AcDbEntity
  8
0
 62
     7
100
AcDbMText
 10
76.894014
 20
12.948546
 30
0.0
 40
1.571463
 41
0.0
 71
     1
 72
     2
  1
\fMS Mincho|b0|i0|c128;MADE IN TAIWAN
  7
STD
210
0.0
220
0.0
230
1.0
 11
1.000001
 21
0.0
 31
0.0
 73
     1
 44
1.0
  0
MTEXT
  5
108
100
AcDbEntity
  8
0
 62
     7
100
AcDbMText
 10
177.42035
 20
20.906717
 30
0.0
 40
1.571463
 41
0.0
 71
     1
 72
     2
  1
\fMS Mincho|b0|i0|c128;INPUT
  7
STD
210
0.0
220
0.0
230
1.0
 11
1.000001
 21
0.0
 31
0.0
 73
     1
 44
1.0
  0
POLYLINE
  5
101
100
AcDbEntity
  8
0
 62
     7
100
AcDb2dPolyline
 66
     1
 10
0.0
 20
0.0
 30
0.0
  0
VERTEX
  5
102
100
AcDbEntity
  8
0
 62
     7
100
AcDbVertex
100
AcDb2dVertex
 10
169.436342
 20
9.607682
 30
0.0
  0
VERTEX
  5
103
100
AcDbEntity
  8
0
 62
     7
100
AcDbVertex
100
AcDb2dVertex
 10
179.735799
 20
9.607682
 30
0.0
  0
VERTEX
  5
104
100
AcDbEntity
  8
0
 62
     7
100
AcDbVertex
100
AcDb2dVertex
 10
178.791498
 20
8.326796
 30
0.0
  0
VERTEX
  5
105
100
AcDbEntity
  8
0
 62
     7
100
AcDbVertex
100
AcDb2dVertex
 10
170.258686
 20
8.326796
 30
0.0
  0
VERTEX
  5
106
100
AcDbEntity
  8
0
 62
     7
100
AcDbVertex
100
AcDb2dVertex
 10
169.436342
 20
9.607682
 30
0.0
  0
SEQEND
  5
107
100
AcDbEntity
  8
0
 62
     7
  0
HATCH
  5
100
100
AcDbEntity
  8
0
 62
     7
100
AcDbHatch
 10
0.0
 20
0.0
 30
0.0
210
0.0
220
0.0
230
1.0
  2
SOLID
 70
     1
 71
     0
 91
        1
 92
        3
 72
     0
 73
     1
 93
        4
 10
169.43634168836803
 20
9.6076822916666664
 10
179.73579915364581
 20
9.6076822916666664
 10
178.79149848090276
 20
8.3267957899305554
 10
170.25868598090275
 20
8.3267957899305554
 97
        0
 75
     0
 76
     1
 98
        1
 10
0.0
 20
0.0
  0
SPLINE
  5
FF
100
AcDbEntity
  8
0
 62
     7
100
AcDbSpline
210
0.0
220
0.0
230
1.0
 70
     8
 71
     3
 72
    11
 73
     7
 74
     0
 42
0.00000001
 43
0.00000001
 40
0.0
 40
0.0
 40
0.0
 40
0.0
 40
1.0
 40
1.0
 40
1.0
 40
2.0
 40
2.0
 40
2.0
 40
2.0
 10
57.134324815538186
 20
9.5401584201388872
 30
0.0
 10
57.135013834635409
 20
9.0065131293402771
 30
0.0
 10
56.23084852430555
 20
8.5731201171875
 30
0.0
 10
55.115326605902773
 20
8.5710530598958332
 30
0.0
 10
53.99963243272569
 20
8.5689860026041664
 30
0.0
 10
53.094778103298609
 20
8.9999674479166654
 30
0.0
 10
53.093744574652774
 20
9.5336127387152771
 30
0.0
  0
SPLINE
  5
FE
100
AcDbEntity
  8
0
 62
     7
100
AcDbSpline
210
0.0
220
0.0
230
1.0
 70
     8
 71
     3
 72
    11
 73
     7
 74
     0
 42
0.00000001
 43
0.00000001
 40
0.0
 40
0.0
 40
0.0
 40
0.0
 40
1.0
 40
1.0
 40
1.0
 40
2.0
 40
2.0
 40
2.0
 40
2.0
 10
49.531688096788187
 20
11.459765624999999
 30
0.0
 10
48.998215060763883
 20
11.459765624999999
 30
0.0
 10
48.566027832031246
 20
12.363414171006943
 30
0.0
 10
48.566027832031246
 20
13.479280598958333
 30
0.0
 10
48.566027832031246
 20
14.595147026909721
 30
0.0
 10
48.998215060763883
 20
15.50017361111111
 30
0.0
 10
49.531688096788187
 20
15.50017361111111
 30
0.0
  0
SPLINE
  5
FD
100
AcDbEntity
  8
0
 62
     7
100
AcDbSpline
210
0.0
220
0.0
230
1.0
 70
     8
 71
     3
 72
    11
 73
     7
 74
     0
 42
0.00000001
 43
0.00000001
 40
0.0
 40
0.0
 40
0.0
 40
0.0
 40
1.0
 40
1.0
 40
1.0
 40
2.0
 40
2.0
 40
2.0
 40
2.0
 10
189.79134385850693
 20
15.827457682291666
 30
0.0
 10
190.32498914930554
 20
15.827457682291666
 30
0.0
 10
190.75665961371527
 20
14.922775607638888
 30
0.0
 10
190.75769314236109
 20
13.807253689236109
 30
0.0
 10
190.75769314236109
 20
12.691387261284721
 30
0.0
 10
190.32498914930554
 20
11.786705186631943
 30
0.0
 10
189.79134385850693
 20
11.786705186631943
 30
0.0
  0
SPLINE
  5
FC
100
AcDbEntity
  8
0
 62
     7
100
AcDbSpline
210
0.0
220
0.0
230
1.0
 70
     8
 71
     3
 72
    11
 73
     7
 74
     0
 42
0.00000001
 43
0.00000001
 40
0.0
 40
0.0
 40
0.0
 40
0.0
 40
1.0
 40
1.0
 40
1.0
 40
2.0
 40
2.0
 40
2.0
 40
2.0
 10
186.18467339409722
 20
9.6052707248263882
 30
0.0
 10
186.1815728081597
 20
9.0719699435763879
 30
0.0
 10
185.27516818576387
 20
8.6447781032986111
 30
0.0
 10
184.1596462673611
 20
8.6513237847222211
 30
0.0
 10
183.0434353298611
 20
8.6582139756944443
 30
0.0
 10
182.14116482204861
 20
9.0950520833333321
 30
0.0
 10
182.1442654079861
 20
9.6286973741319439
 30
0.0
  0
POLYLINE
  5
F5
100
AcDbEntity
  8
0
 62
     7
100
AcDb2dPolyline
 66
     1
 10
0.0
 20
0.0
 30
0.0
  0
VERTEX
  5
F6
100
AcDbEntity
  8
0
 62
     7
100
AcDbVertex
100
AcDb2dVertex
 10
59.326784
 20
9.607682
 30
0.0
  0
VERTEX
  5
F7
100
AcDbEntity
  8
0
 62
     7
100
AcDbVertex
100
AcDb2dVertex
 10
69.626586
 20
9.607682
 30
0.0
  0
VERTEX
  5
F8
100
AcDbEntity
  8
0
 62
     7
100
AcDbVertex
100
AcDb2dVertex
 10
68.682113
 20
8.326796
 30
0.0
  0
VERTEX
  5
F9
100
AcDbEntity
  8
0
 62
     7
100
AcDbVertex
100
AcDb2dVertex
 10
60.149128
 20
8.326796
 30
0.0
  0
VERTEX
  5
FA
100
AcDbEntity
  8
0
 62
     7
100
AcDbVertex
100
AcDb2dVertex
 10
59.326784
 20
9.607682
 30
0.0
  0
SEQEND
  5
FB
100
AcDbEntity
  8
0
 62
     7
  0
HATCH
  5
F4
100
AcDbEntity
  8
0
 62
     7
100
AcDbHatch
 10
0.0
 20
0.0
 30
0.0
210
0.0
220
0.0
230
1.0
  2
SOLID
 70
     1
 71
     0
 91
        1
 92
        3
 72
     0
 73
     1
 93
        4
 10
59.326783582899303
 20
9.6076822916666664
 10
69.62658555772569
 20
9.6076822916666664
 10
68.682112630208323
 20
8.3267957899305554
 10
60.149127875434026
 20
8.3267957899305554
 97
        0
 75
     0
 76
     1
 98
        1
 10
0.0
 20
0.0
  0
POLYLINE
  5
EE
100
AcDbEntity
  8
0
 62
     7
100
AcDb2dPolyline
 66
     1
 10
0.0
 20
0.0
 30
0.0
 70
     1
  0
VERTEX
  5
EF
100
AcDbEntity
  8
0
 62
     7
100
AcDbVertex
100
AcDb2dVertex
 10
189.572925
 20
9.556006
 30
0.0
  0
VERTEX
  5
F0
100
AcDbEntity
  8
0
 62
     7
100
AcDbVertex
100
AcDb2dVertex
 10
49.496031
 20
9.556006
 30
0.0
  0
VERTEX
  5
F1
100
AcDbEntity
  8
0
 62
     7
100
AcDbVertex
100
AcDb2dVertex
 10
49.496031
 20
36.543506
 30
0.0
  0
VERTEX
  5
F2
100
AcDbEntity
  8
0
 62
     7
100
AcDbVertex
100
AcDb2dVertex
 10
189.572925
 20
36.543506
 30
0.0
  0
SEQEND
  5
F3
100
AcDbEntity
  8
0
 62
     7
  0
INSERT
  5
E9
100
AcDbEntity
  8
0
 62
     7
100
AcDbBlockReference
  2
AI9-BLK1
 10
70.099856
 20
22.829614
 30
0.0
  0
SPLINE
  5
E7
100
AcDbEntity
  8
0
 62
     7
100
AcDbSpline
210
0.0
220
0.0
230
1.0
 70
     8
 71
     3
 72
    29
 73
    25
 74
     0
 42
0.00000001
 43
0.00000001
 40
0.0
 40
0.0
 40
0.0
 40
0.0
 40
1.0
 40
1.0
 40
1.0
 40
2.0
 40
2.0
 40
2.0
 40
3.0
 40
3.0
 40
3.0
 40
4.0
 40
4.0
 40
4.0
 40
5.0
 40
5.0
 40
5.0
 40
6.0
 40
6.0
 40
6.0
 40
7.0
 40
7.0
 40
7.0
 40
8.0
 40
8.0
 40
8.0
 40
8.0
 10
61.113926866319439
 20
23.061813693576386
 30
0.0
 10
61.113926866319439
 20
21.539770507812499
 30
0.0
 10
59.512990993923609
 20
20.305392795138886
 30
0.0
 10
57.53843451605902
 20
20.305392795138886
 30
0.0
 10
57.53843451605902
 20
20.305392795138886
 30
0.0
 10
57.53843451605902
 20
20.305392795138886
 30
0.0
 10
57.53843451605902
 20
20.305392795138886
 30
0.0
 10
55.56422254774305
 20
20.305392795138886
 30
0.0
 10
53.963458930121526
 20
21.539770507812499
 30
0.0
 10
53.963458930121526
 20
23.061813693576386
 30
0.0
 10
53.963458930121526
 20
23.061813693576386
 30
0.0
 10
53.963458930121526
 20
24.605216471354165
 30
0.0
 10
53.963458930121526
 20
24.605216471354165
 30
0.0
 10
53.963458930121526
 20
26.127604166666664
 30
0.0
 10
55.56422254774305
 20
27.361292860243054
 30
0.0
 10
57.53843451605902
 20
27.361292860243054
 30
0.0
 10
57.53843451605902
 20
27.361292860243054
 30
0.0
 10
57.53843451605902
 20
27.361292860243054
 30
0.0
 10
57.53843451605902
 20
27.361292860243054
 30
0.0
 10
59.512990993923609
 20
27.361292860243054
 30
0.0
 10
61.113926866319439
 20
26.127604166666664
 30
0.0
 10
61.113926866319439
 20
24.605216471354165
 30
0.0
 10
61.113926866319439
 20
24.605216471354165
 30
0.0
 10
61.113926866319439
 20
23.061813693576386
 30
0.0
 10
61.113926866319439
 20
23.061813693576386
 30
0.0
  0
SPLINE
  5
E6
100
AcDbEntity
  8
0
 62
     7
100
AcDbSpline
210
0.0
220
0.0
230
1.0
 70
     8
 71
     3
 72
    29
 73
    25
 74
     0
 42
0.00000001
 43
0.00000001
 40
0.0
 40
0.0
 40
0.0
 40
0.0
 40
1.0
 40
1.0
 40
1.0
 40
2.0
 40
2.0
 40
2.0
 40
3.0
 40
3.0
 40
3.0
 40
4.0
 40
4.0
 40
4.0
 40
5.0
 40
5.0
 40
5.0
 40
6.0
 40
6.0
 40
6.0
 40
7.0
 40
7.0
 40
7.0
 40
8.0
 40
8.0
 40
8.0
 40
8.0
 10
60.27711317274305
 20
22.402422417534719
 30
0.0
 10
60.27711317274305
 20
21.215587022569444
 30
0.0
 10
59.029471842447911
 20
20.253716362847221
 30
0.0
 10
57.490375434027776
 20
20.253716362847221
 30
0.0
 10
57.490375434027776
 20
20.253716362847221
 30
0.0
 10
57.490375434027776
 20
20.253716362847221
 30
0.0
 10
57.490375434027776
 20
20.253716362847221
 30
0.0
 10
55.951106770833327
 20
20.253716362847221
 30
0.0
 10
54.703637695312494
 20
21.215587022569444
 30
0.0
 10
54.703637695312494
 20
22.402422417534719
 30
0.0
 10
54.703637695312494
 20
22.402422417534719
 30
0.0
 10
54.703637695312494
 20
23.605449761284721
 30
0.0
 10
54.703637695312494
 20
23.605449761284721
 30
0.0
 10
54.703637695312494
 20
24.792285156249999
 30
0.0
 10
55.951106770833327
 20
25.753811306423607
 30
0.0
 10
57.490375434027776
 20
25.753811306423607
 30
0.0
 10
57.490375434027776
 20
25.753811306423607
 30
0.0
 10
57.490375434027776
 20
25.753811306423607
 30
0.0
 10
57.490375434027776
 20
25.753811306423607
 30
0.0
 10
59.029471842447911
 20
25.753811306423607
 30
0.0
 10
60.27711317274305
 20
24.792285156249999
 30
0.0
 10
60.27711317274305
 20
23.605449761284721
 30
0.0
 10
60.27711317274305
 20
23.605449761284721
 30
0.0
 10
60.27711317274305
 20
22.402422417534719
 30
0.0
 10
60.27711317274305
 20
22.402422417534719
 30
0.0
  0
POLYLINE
  5
E0
100
AcDbEntity
  8
0
 62
     7
100
AcDb2dPolyline
 66
     1
 10
0.0
 20
0.0
 30
0.0
 70
     1
  0
VERTEX
  5
E1
100
AcDbEntity
  8
0
 62
     7
100
AcDbVertex
100
AcDb2dVertex
 10
59.34487
 20
20.723972
 30
0.0
  0
VERTEX
  5
E2
100
AcDbEntity
  8
0
 62
     7
100
AcDbVertex
100
AcDb2dVertex
 10
55.712534
 20
20.723972
 30
0.0
  0
VERTEX
  5
E3
100
AcDbEntity
  8
0
 62
     7
100
AcDbVertex
100
AcDb2dVertex
 10
55.712534
 20
22.590869
 30
0.0
  0
VERTEX
  5
E4
100
AcDbEntity
  8
0
 62
     7
100
AcDbVertex
100
AcDb2dVertex
 10
59.34487
 20
22.590869
 30
0.0
  0
SEQEND
  5
E5
100
AcDbEntity
  8
0
 62
     7
  0
LINE
  5
DF
100
AcDbEntity
  8
0
 62
     7
100
AcDbLine
 10
49.496031
 20
36.543506
 30
0.0
 11
51.373436
 21
34.490229
 31
0.0
  0
LINE
  5
DE
100
AcDbEntity
  8
0
 62
     7
100
AcDbLine
 10
51.373436
 20
34.490229
 30
0.0
 11
187.424563
 21
34.490229
 31
0.0
  0
LINE
  5
DD
100
AcDbEntity
  8
0
 62
     7
100
AcDbLine
 10
187.424563
 20
34.490229
 30
0.0
 11
189.184318
 21
36.074284
 31
0.0
  0
LINE
  5
DC
100
AcDbEntity
  8
0
 62
     7
100
AcDbLine
 10
187.424563
 20
34.490229
 30
0.0
 11
187.424563
 21
9.673484
 31
0.0
  0
LINE
  5
DB
100
AcDbEntity
  8
0
 62
     7
100
AcDbLine
 10
51.373436
 20
34.490229
 30
0.0
 11
51.373436
 21
9.849528
 31
0.0
  0
SPLINE
  5
DA
100
AcDbEntity
  8
0
 62
     7
100
AcDbSpline
210
0.0
220
0.0
230
1.0
 70
     8
 71
     3
 72
    11
 73
     7
 74
     0
 42
0.00000001
 43
0.00000001
 40
0.0
 40
0.0
 40
0.0
 40
0.0
 40
1.0
 40
1.0
 40
1.0
 40
2.0
 40
2.0
 40
2.0
 40
2.0
 10
183.79791124131944
 20
26.509665256076385
 30
0.0
 10
183.77103949652775
 20
28.495073784722219
 30
0.0
 10
182.3433919270833
 20
29.821435546874998
 30
0.0
 10
180.3366238064236
 20
30.056046549479163
 30
0.0
 10
178.26439887152776
 20
30.068793402777775
 30
0.0
 10
176.47811686197915
 20
28.545372178819441
 30
0.0
 10
176.53806152343748
 20
26.509665256076385
 30
0.0
  0
SPLINE
  5
D9
100
AcDbEntity
  8
0
 62
     7
100
AcDbSpline
210
0.0
220
0.0
230
1.0
 70
     8
 71
     3
 72
    11
 73
     7
 74
     0
 42
0.00000001
 43
0.00000001
 40
0.0
 40
0.0
 40
0.0
 40
0.0
 40
1.0
 40
1.0
 40
1.0
 40
2.0
 40
2.0
 40
2.0
 40
2.0
 10
176.39750162760416
 20
26.509665256076385
 30
0.0
 10
176.45193413628471
 20
28.398266601562497
 30
0.0
 10
178.13761935763887
 20
30.146652560763886
 30
0.0
 10
180.13990885416666
 20
30.111512586805553
 30
0.0
 10
182.15391167534722
 20
30.180414496527774
 30
0.0
 10
183.90367567274305
 20
28.432717556423608
 30
0.0
 10
183.88334960937499
 20
26.509665256076385
 30
0.0
  0
LINE
  5
D8
100
AcDbEntity
  8
0
 62
     7
100
AcDbLine
 10
183.88335
 20
26.509665
 30
0.0
 11
183.797911
 21
26.509665
 31
0.0
  0
LINE
  5
D7
100
AcDbEntity
  8
0
 62
     7
100
AcDbLine
 10
176.538062
 20
26.509665
 30
0.0
 11
176.397502
 21
26.509665
 31
0.0
  0
SPLINE
  5
D6
100
AcDbEntity
  8
0
 62
     7
100
AcDbSpline
210
0.0
220
0.0
230
1.0
 70
     8
 71
     3
 72
    14
 73
    10
 74
     0
 42
0.00000001
 43
0.00000001
 40
0.0
 40
0.0
 40
0.0
 40
0.0
 40
1.0
 40
1.0
 40
1.0
 40
2.0
 40
2.0
 40
2.0
 40
3.0
 40
3.0
 40
3.0
 40
3.0
 10
183.79791124131944
 20
26.509665256076385
 30
0.0
 10
183.7631157769097
 20
25.363137478298608
 30
0.0
 10
183.56674533420139
 20
25.072715928819441
 30
0.0
 10
182.92664659288192
 20
24.173890516493053
 30
0.0
 10
182.2992947048611
 20
23.433539496527775
 30
0.0
 10
181.30779622395832
 20
22.983265516493052
 30
0.0
 10
180.3366238064236
 20
22.963283962673611
 30
0.0
 10
178.29643825954861
 20
22.776559787326388
 30
0.0
 10
176.42712944878471
 20
24.576622178819441
 30
0.0
 10
176.53806152343748
 20
26.509665256076385
 30
0.0
  0
SPLINE
  5
D5
100
AcDbEntity
  8
0
 62
     7
100
AcDbSpline
210
0.0
220
0.0
230
1.0
 70
     8
 71
     3
 72
     8
 73
     4
 74
     0
 42
0.00000001
 43
0.00000001
 40
0.0
 40
0.0
 40
0.0
 40
0.0
 40
1.0
 40
1.0
 40
1.0
 40
1.0
 10
183.88334960937499
 20
26.509665256076385
 30
0.0
 10
183.67388780381944
 20
21.677918836805553
 30
0.0
 10
176.69653591579859
 20
21.712025282118052
 30
0.0
 10
176.39750162760416
 20
26.509665256076385
 30
0.0
  0
POLYLINE
  5
D0
100
AcDbEntity
  8
0
 62
     7
100
AcDb2dPolyline
 66
     1
 10
0.0
 20
0.0
 30
0.0
  0
VERTEX
  5
D1
100
AcDbEntity
  8
0
 62
     7
100
AcDbVertex
100
AcDb2dVertex
 10
176.397502
 20
26.509665
 30
0.0
  0
VERTEX
  5
D2
100
AcDbEntity
  8
0
 62
     7
100
AcDbVertex
100
AcDb2dVertex
 10
176.538062
 20
26.509665
 30
0.0
  0
VERTEX
  5
D3
100
AcDbEntity
  8
0
 62
     7
100
AcDbVertex
100
AcDb2dVertex
 10
176.538062
 20
26.509665
 30
0.0
  0
SEQEND
  5
D4
100
AcDbEntity
  8
0
 62
     7
  0
LINE
  5
CF
100
AcDbEntity
  8
0
 62
     7
100
AcDbLine
 10
183.797911
 20
26.509665
 30
0.0
 11
183.88335
 21
26.509665
 31
0.0
  0
LINE
  5
CE
100
AcDbEntity
  8
0
 62
   250
100
AcDbLine
 10
177.410704
 20
26.959595
 30
0.0
 11
177.410704
 21
26.059391
 31
0.0
  0
LINE
  5
CD
100
AcDbEntity
  8
0
 62
   250
100
AcDbLine
 10
177.410704
 20
26.959595
 30
0.0
 11
178.000849
 21
26.959595
 31
0.0
  0
LINE
  5
CC
100
AcDbEntity
  8
0
 62
   250
100
AcDbLine
 10
177.410704
 20
26.059391
 30
0.0
 11
178.000849
 21
26.059391
 31
0.0
  0
LINE
  5
CB
100
AcDbEntity
  8
0
 62
   250
100
AcDbLine
 10
182.814336
 20
26.959595
 30
0.0
 11
182.814336
 21
26.059391
 31
0.0
  0
LINE
  5
CA
100
AcDbEntity
  8
0
 62
   250
100
AcDbLine
 10
182.814336
 20
26.959595
 30
0.0
 11
182.194219
 21
26.959595
 31
0.0
  0
LINE
  5
C9
100
AcDbEntity
  8
0
 62
   250
100
AcDbLine
 10
182.814336
 20
26.059391
 30
0.0
 11
182.194219
 21
26.059391
 31
0.0
  0
SPLINE
  5
C8
100
AcDbEntity
  8
0
 62
   250
100
AcDbSpline
210
0.0
220
0.0
230
1.0
 70
     8
 71
     3
 72
    23
 73
    19
 74
     0
 42
0.00000001
 43
0.00000001
 40
0.0
 40
0.0
 40
0.0
 40
0.0
 40
1.0
 40
1.0
 40
1.0
 40
2.0
 40
2.0
 40
2.0
 40
3.0
 40
3.0
 40
3.0
 40
4.0
 40
4.0
 40
4.0
 40
5.0
 40
5.0
 40
5.0
 40
6.0
 40
6.0
 40
6.0
 40
6.0
 10
182.27931315104166
 20
26.509665256076385
 30
0.0
 10
182.27931315104166
 20
27.212464735243053
 30
0.0
 10
181.8007893880208
 20
27.916986762152774
 30
0.0
 10
181.12555067274303
 20
28.310761176215276
 30
0.0
 10
180.53471679687499
 20
28.619786241319442
 30
0.0
 10
179.66172960069443
 20
28.619786241319442
 30
0.0
 10
179.01439615885414
 20
28.310761176215276
 30
0.0
 10
178.33915744357637
 20
27.916986762152774
 30
0.0
 10
177.94503851996527
 20
27.212464735243053
 30
0.0
 10
177.94503851996527
 20
26.509665256076385
 30
0.0
 10
177.94503851996527
 20
25.721427408854165
 30
0.0
 10
178.33915744357637
 20
25.074093967013887
 30
0.0
 10
179.01439615885414
 20
24.708224826388886
 30
0.0
 10
179.66172960069443
 20
24.314794921874999
 30
0.0
 10
180.53471679687499
 20
24.314794921874999
 30
0.0
 10
181.12555067274303
 20
24.708224826388886
 30
0.0
 10
181.8007893880208
 20
25.074093967013887
 30
0.0
 10
182.27931315104166
 20
25.721427408854165
 30
0.0
 10
182.27931315104166
 20
26.509665256076385
 30
0.0
  0
SPLINE
  5
C7
100
AcDbEntity
  8
0
 62
   250
100
AcDbSpline
210
0.0
220
0.0
230
1.0
 70
     8
 71
     3
 72
    23
 73
    19
 74
     0
 42
0.00000001
 43
0.00000001
 40
0.0
 40
0.0
 40
0.0
 40
0.0
 40
1.0
 40
1.0
 40
1.0
 40
2.0
 40
2.0
 40
2.0
 40
3.0
 40
3.0
 40
3.0
 40
4.0
 40
4.0
 40
4.0
 40
5.0
 40
5.0
 40
5.0
 40
6.0
 40
6.0
 40
6.0
 40
6.0
 10
180.08409830729164
 20
29.408024088541666
 30
0.0
 10
179.01439615885414
 20
29.408024088541666
 30
0.0
 10
178.08594292534721
 20
28.81753472222222
 30
0.0
 10
177.55091959635416
 20
27.916986762152774
 30
0.0
 10
177.01589626736109
 20
27.016094292534721
 30
0.0
 10
177.01589626736109
 20
25.91848687065972
 30
0.0
 10
177.55091959635416
 20
25.017594401041663
 30
0.0
 10
178.08594292534721
 20
24.173890516493053
 30
0.0
 10
179.01439615885414
 20
23.611306423611108
 30
0.0
 10
180.08409830729164
 20
23.611306423611108
 30
0.0
 10
181.12555067274303
 20
23.611306423611108
 30
0.0
 10
182.13806423611109
 20
24.173890516493053
 30
0.0
 10
182.67308756510414
 20
25.017594401041663
 30
0.0
 10
183.20776638454859
 20
25.91848687065972
 30
0.0
 10
183.20776638454859
 20
27.016094292534721
 30
0.0
 10
182.67308756510414
 20
27.916986762152774
 30
0.0
 10
182.13806423611109
 20
28.81753472222222
 30
0.0
 10
181.12555067274303
 20
29.408024088541666
 30
0.0
 10
180.08409830729164
 20
29.408024088541666
 30
0.0
  0
SPLINE
  5
C6
100
AcDbEntity
  8
0
 62
   250
100
AcDbSpline
210
0.0
220
0.0
230
1.0
 70
     8
 71
     3
 72
    23
 73
    19
 74
     0
 42
0.00000001
 43
0.00000001
 40
0.0
 40
0.0
 40
0.0
 40
0.0
 40
1.0
 40
1.0
 40
1.0
 40
2.0
 40
2.0
 40
2.0
 40
3.0
 40
3.0
 40
3.0
 40
4.0
 40
4.0
 40
4.0
 40
5.0
 40
5.0
 40
5.0
 40
6.0
 40
6.0
 40
6.0
 40
6.0
 10
181.99715983072915
 20
26.509665256076385
 30
0.0
 10
181.99715983072915
 20
27.157343207465274
 30
0.0
 10
181.65919596354166
 20
27.720271809895831
 30
0.0
 10
181.06905110677081
 20
28.11335720486111
 30
0.0
 10
180.47787272135415
 20
28.423071289062499
 30
0.0
 10
179.74578993055553
 20
28.423071289062499
 30
0.0
 10
179.12670627170138
 20
28.11335720486111
 30
0.0
 10
178.53587239583331
 20
27.720271809895831
 30
0.0
 10
178.19859754774305
 20
27.157343207465274
 30
0.0
 10
178.19859754774305
 20
26.509665256076385
 30
0.0
 10
178.19859754774305
 20
25.862331814236107
 30
0.0
 10
178.53587239583331
 20
25.214998372395829
 30
0.0
 10
179.12670627170138
 20
24.877379014756944
 30
0.0
 10
179.74578993055553
 20
24.567664930555555
 30
0.0
 10
180.47787272135415
 20
24.567664930555555
 30
0.0
 10
181.06905110677081
 20
24.877379014756944
 30
0.0
 10
181.65919596354166
 20
25.214998372395829
 30
0.0
 10
181.99715983072915
 20
25.862331814236107
 30
0.0
 10
181.99715983072915
 20
26.509665256076385
 30
0.0
  0
SPLINE
  5
C5
100
AcDbEntity
  8
0
 62
   250
100
AcDbSpline
210
0.0
220
0.0
230
1.0
 70
     8
 71
     3
 72
    23
 73
    19
 74
     0
 42
0.00000001
 43
0.00000001
 40
0.0
 40
0.0
 40
0.0
 40
0.0
 40
1.0
 40
1.0
 40
1.0
 40
2.0
 40
2.0
 40
2.0
 40
3.0
 40
3.0
 40
3.0
 40
4.0
 40
4.0
 40
4.0
 40
5.0
 40
5.0
 40
5.0
 40
6.0
 40
6.0
 40
6.0
 40
6.0
 10
181.06905110677081
 20
26.509665256076385
 30
0.0
 10
181.06905110677081
 20
26.819379340277774
 30
0.0
 10
180.87199164496525
 20
27.157343207465274
 30
0.0
 10
180.59018283420139
 20
27.269653320312496
 30
0.0
 10
180.28012424045139
 20
27.466712782118051
 30
0.0
 10
179.94319390190969
 20
27.466712782118051
 30
0.0
 10
179.60557454427081
 20
27.269653320312496
 30
0.0
 10
179.32411024305554
 20
27.157343207465274
 30
0.0
 10
179.12670627170138
 20
26.819379340277774
 30
0.0
 10
179.12670627170138
 20
26.509665256076385
 30
0.0
 10
179.12670627170138
 20
26.171701388888888
 30
0.0
 10
179.32411024305554
 20
25.862331814236107
 30
0.0
 10
179.60557454427081
 20
25.665272352430552
 30
0.0
 10
179.94319390190969
 20
25.525056966145829
 30
0.0
 10
180.28012424045139
 20
25.525056966145829
 30
0.0
 10
180.59018283420139
 20
25.665272352430552
 30
0.0
 10
180.87199164496525
 20
25.862331814236107
 30
0.0
 10
181.06905110677081
 20
26.171701388888888
 30
0.0
 10
181.06905110677081
 20
26.509665256076385
 30
0.0
  0
SPLINE
  5
C4
100
AcDbEntity
  8
0
 62
   250
100
AcDbSpline
210
0.0
220
0.0
230
1.0
 70
     8
 71
     3
 72
    23
 73
    19
 74
     0
 42
0.00000001
 43
0.00000001
 40
0.0
 40
0.0
 40
0.0
 40
0.0
 40
1.0
 40
1.0
 40
1.0
 40
2.0
 40
2.0
 40
2.0
 40
3.0
 40
3.0
 40
3.0
 40
4.0
 40
4.0
 40
4.0
 40
5.0
 40
5.0
 40
5.0
 40
6.0
 40
6.0
 40
6.0
 40
6.0
 10
180.47787272135415
 20
26.509665256076385
 30
0.0
 10
180.47787272135415
 20
26.622319878472219
 30
0.0
 10
180.39312337239582
 20
26.706724717881944
 30
0.0
 10
180.28012424045139
 20
26.76219075520833
 30
0.0
 10
180.13990885416666
 20
26.819379340277774
 30
0.0
 10
180.00038248697916
 20
26.819379340277774
 30
0.0
 10
179.94319390190969
 20
26.76219075520833
 30
0.0
 10
179.80263400607637
 20
26.706724717881944
 30
0.0
 10
179.74578993055553
 20
26.622319878472219
 30
0.0
 10
179.74578993055553
 20
26.509665256076385
 30
0.0
 10
179.74578993055553
 20
26.368416341145831
 30
0.0
 10
179.80263400607637
 20
26.256795247395832
 30
0.0
 10
179.94319390190969
 20
26.171701388888888
 30
0.0
 10
180.00038248697916
 20
26.115546332465275
 30
0.0
 10
180.13990885416666
 20
26.115546332465275
 30
0.0
 10
180.28012424045139
 20
26.171701388888888
 30
0.0
 10
180.39312337239582
 20
26.256795247395832
 30
0.0
 10
180.47787272135415
 20
26.368416341145831
 30
0.0
 10
180.47787272135415
 20
26.509665256076385
 30
0.0
  0
SPLINE
  5
C3
100
AcDbEntity
  8
0
 62
     7
100
AcDbSpline
210
0.0
220
0.0
230
1.0
 70
     8
 71
     3
 72
    11
 73
     7
 74
     0
 42
0.00000001
 43
0.00000001
 40
0.0
 40
0.0
 40
0.0
 40
0.0
 40
1.0
 40
1.0
 40
1.0
 40
2.0
 40
2.0
 40
2.0
 40
2.0
 10
170.09538845486111
 20
26.480037434895831
 30
0.0
 10
170.06851671006942
 20
28.465790473090276
 30
0.0
 10
168.64018012152775
 20
29.792152235243051
 30
0.0
 10
166.63341200086805
 20
30.026074218749997
 30
0.0
 10
164.56118706597221
 20
30.03985460069444
 30
0.0
 10
162.77456054687499
 20
28.51643337673611
 30
0.0
 10
162.83484971788192
 20
26.480037434895831
 30
0.0
  0
SPLINE
  5
C2
100
AcDbEntity
  8
0
 62
     7
100
AcDbSpline
210
0.0
220
0.0
230
1.0
 70
     8
 71
     3
 72
    11
 73
     7
 74
     0
 42
0.00000001
 43
0.00000001
 40
0.0
 40
0.0
 40
0.0
 40
0.0
 40
1.0
 40
1.0
 40
1.0
 40
2.0
 40
2.0
 40
2.0
 40
2.0
 10
162.69394531249998
 20
26.480037434895831
 30
0.0
 10
162.74872233072915
 20
28.369327799479166
 30
0.0
 10
164.43371853298609
 20
30.11736924913194
 30
0.0
 10
166.43635253906248
 20
30.082573784722218
 30
0.0
 10
168.45104437934026
 20
30.151131184895831
 30
0.0
 10
170.20046386718749
 20
28.403089735243054
 30
0.0
 10
170.17944878472221
 20
26.480037434895831
 30
0.0
  0
LINE
  5
C1
100
AcDbEntity
  8
0
 62
     7
100
AcDbLine
 10
170.179449
 20
26.845907
 30
0.0
 11
170.095388
 21
26.845907
 31
0.0
  0
LINE
  5
C0
100
AcDbEntity
  8
0
 62
     7
100
AcDbLine
 10
162.83485
 20
26.845907
 30
0.0
 11
162.693945
 21
26.845907
 31
0.0
  0
SPLINE
  5
BF
100
AcDbEntity
  8
0
 62
     7
100
AcDbSpline
210
0.0
220
0.0
230
1.0
 70
     8
 71
     3
 72
    14
 73
    10
 74
     0
 42
0.00000001
 43
0.00000001
 40
0.0
 40
0.0
 40
0.0
 40
0.0
 40
1.0
 40
1.0
 40
1.0
 40
2.0
 40
2.0
 40
2.0
 40
3.0
 40
3.0
 40
3.0
 40
3.0
 10
170.09538845486111
 20
26.480037434895831
 30
0.0
 10
170.05921495225692
 20
25.333854166666665
 30
0.0
 10
169.86387803819443
 20
25.044121636284721
 30
0.0
 10
169.22309027777777
 20
24.14460720486111
 30
0.0
 10
168.59608289930554
 20
23.404945203993055
 30
0.0
 10
167.60458441840277
 20
22.953637695312498
 30
0.0
 10
166.63341200086805
 20
22.934345160590276
 30
0.0
 10
164.59322645399305
 20
22.747276475694441
 30
0.0
 10
162.72426215277775
 20
24.54768337673611
 30
0.0
 10
162.83484971788192
 20
26.480037434895831
 30
0.0
  0
SPLINE
  5
BE
100
AcDbEntity
  8
0
 62
     7
100
AcDbSpline
210
0.0
220
0.0
230
1.0
 70
     8
 71
     3
 72
     8
 73
     4
 74
     0
 42
0.00000001
 43
0.00000001
 40
0.0
 40
0.0
 40
0.0
 40
0.0
 40
1.0
 40
1.0
 40
1.0
 40
1.0
 10
170.17944878472221
 20
26.480037434895831
 30
0.0
 10
169.97033148871526
 20
21.64863552517361
 30
0.0
 10
162.99263509114581
 20
21.682741970486109
 30
0.0
 10
162.69394531249998
 20
26.480037434895831
 30
0.0
  0
POLYLINE
  5
B9
100
AcDbEntity
  8
0
 62
     7
100
AcDb2dPolyline
 66
     1
 10
0.0
 20
0.0
 30
0.0
  0
VERTEX
  5
BA
100
AcDbEntity
  8
0
 62
     7
100
AcDbVertex
100
AcDb2dVertex
 10
162.693945
 20
26.845907
 30
0.0
  0
VERTEX
  5
BB
100
AcDbEntity
  8
0
 62
     7
100
AcDbVertex
100
AcDb2dVertex
 10
162.83485
 20
26.845907
 30
0.0
  0
VERTEX
  5
BC
100
AcDbEntity
  8
0
 62
     7
100
AcDbVertex
100
AcDb2dVertex
 10
162.83485
 20
26.845907
 30
0.0
  0
SEQEND
  5
BD
100
AcDbEntity
  8
0
 62
     7
  0
LINE
  5
B8
100
AcDbEntity
  8
0
 62
     7
100
AcDbLine
 10
170.095388
 20
26.845907
 30
0.0
 11
170.179449
 21
26.845907
 31
0.0
  0
LINE
  5
B7
100
AcDbEntity
  8
0
 62
   250
100
AcDbLine
 10
163.706803
 20
27.296181
 30
0.0
 11
163.706803
 21
26.396666
 31
0.0
  0
LINE
  5
B6
100
AcDbEntity
  8
0
 62
   250
100
AcDbLine
 10
163.706803
 20
27.296181
 30
0.0
 11
164.297637
 21
27.296181
 31
0.0
  0
LINE
  5
B5
100
AcDbEntity
  8
0
 62
   250
100
AcDbLine
 10
163.706803
 20
26.396666
 30
0.0
 11
164.297637
 21
26.396666
 31
0.0
  0
LINE
  5
B4
100
AcDbEntity
  8
0
 62
   250
100
AcDbLine
 10
169.110436
 20
27.296181
 30
0.0
 11
169.110436
 21
26.396666
 31
0.0
  0
LINE
  5
B3
100
AcDbEntity
  8
0
 62
   250
100
AcDbLine
 10
169.110436
 20
27.296181
 30
0.0
 11
168.491007
 21
27.296181
 31
0.0
  0
LINE
  5
B2
100
AcDbEntity
  8
0
 62
   250
100
AcDbLine
 10
169.110436
 20
26.396666
 30
0.0
 11
168.491007
 21
26.396666
 31
0.0
  0
SPLINE
  5
B1
100
AcDbEntity
  8
0
 62
   250
100
AcDbSpline
210
0.0
220
0.0
230
1.0
 70
     8
 71
     3
 72
    23
 73
    19
 74
     0
 42
0.00000001
 43
0.00000001
 40
0.0
 40
0.0
 40
0.0
 40
0.0
 40
1.0
 40
1.0
 40
1.0
 40
2.0
 40
2.0
 40
2.0
 40
3.0
 40
3.0
 40
3.0
 40
4.0
 40
4.0
 40
4.0
 40
5.0
 40
5.0
 40
5.0
 40
6.0
 40
6.0
 40
6.0
 40
6.0
 10
168.57610134548611
 20
26.480037434895831
 30
0.0
 10
168.57610134548611
 20
27.18318142361111
 30
0.0
 10
168.09757758246525
 20
27.887703450520831
 30
0.0
 10
167.42233886718748
 20
28.28147786458333
 30
0.0
 10
166.83047146267359
 20
28.590847439236107
 30
0.0
 10
165.95851779513887
 20
28.590847439236107
 30
0.0
 10
165.31083984374999
 20
28.28147786458333
 30
0.0
 10
164.63594563802081
 20
27.887703450520831
 30
0.0
 10
164.24113769531249
 20
27.18318142361111
 30
0.0
 10
164.24113769531249
 20
26.480037434895831
 30
0.0
 10
164.24113769531249
 20
25.692833116319441
 30
0.0
 10
164.63594563802081
 20
25.044466145833329
 30
0.0
 10
165.31083984374999
 20
24.678941514756943
 30
0.0
 10
165.95851779513887
 20
24.285511610243052
 30
0.0
 10
166.83047146267359
 20
24.285511610243052
 30
0.0
 10
167.42233886718748
 20
24.678941514756943
 30
0.0
 10
168.09757758246525
 20
25.044466145833329
 30
0.0
 10
168.57610134548611
 20
25.692833116319441
 30
0.0
 10
168.57610134548611
 20
26.480037434895831
 30
0.0
  0
SPLINE
  5
B0
100
AcDbEntity
  8
0
 62
   250
100
AcDbSpline
210
0.0
220
0.0
230
1.0
 70
     8
 71
     3
 72
    23
 73
    19
 74
     0
 42
0.00000001
 43
0.00000001
 40
0.0
 40
0.0
 40
0.0
 40
0.0
 40
1.0
 40
1.0
 40
1.0
 40
2.0
 40
2.0
 40
2.0
 40
3.0
 40
3.0
 40
3.0
 40
4.0
 40
4.0
 40
4.0
 40
5.0
 40
5.0
 40
5.0
 40
6.0
 40
6.0
 40
6.0
 40
6.0
 10
166.38123101128471
 20
29.379085286458331
 30
0.0
 10
165.31083984374999
 20
29.379085286458331
 30
0.0
 10
164.38307562934025
 20
28.788251410590274
 30
0.0
 10
163.84770779079861
 20
27.887703450520831
 30
0.0
 10
163.31302897135416
 20
26.987155490451386
 30
0.0
 10
163.31302897135416
 20
25.888859049479166
 30
0.0
 10
163.84770779079861
 20
24.988655598958331
 30
0.0
 10
164.38307562934025
 20
24.14460720486111
 30
0.0
 10
165.31083984374999
 20
23.582023111979165
 30
0.0
 10
166.38123101128471
 20
23.582023111979165
 30
0.0
 10
167.42233886718748
 20
23.582023111979165
 30
0.0
 10
168.43485243055554
 20
24.14460720486111
 30
0.0
 10
168.96987575954859
 20
24.988655598958331
 30
0.0
 10
169.50421006944444
 20
25.888859049479166
 30
0.0
 10
169.50421006944444
 20
26.987155490451386
 30
0.0
 10
168.96987575954859
 20
27.887703450520831
 30
0.0
 10
168.43485243055554
 20
28.788251410590274
 30
0.0
 10
167.42233886718748
 20
29.379085286458331
 30
0.0
 10
166.38123101128471
 20
29.379085286458331
 30
0.0
  0
SPLINE
  5
AF
100
AcDbEntity
  8
0
 62
   250
100
AcDbSpline
210
0.0
220
0.0
230
1.0
 70
     8
 71
     3
 72
    23
 73
    19
 74
     0
 42
0.00000001
 43
0.00000001
 40
0.0
 40
0.0
 40
0.0
 40
0.0
 40
1.0
 40
1.0
 40
1.0
 40
2.0
 40
2.0
 40
2.0
 40
3.0
 40
3.0
 40
3.0
 40
4.0
 40
4.0
 40
4.0
 40
5.0
 40
5.0
 40
5.0
 40
6.0
 40
6.0
 40
6.0
 40
6.0
 10
168.29360351562499
 20
26.480037434895831
 30
0.0
 10
168.29360351562499
 20
27.12771538628472
 30
0.0
 10
167.95563964843748
 20
27.690988498263888
 30
0.0
 10
167.36515028211804
 20
28.084418402777775
 30
0.0
 10
166.77431640624999
 20
28.393787977430552
 30
0.0
 10
166.0429226345486
 20
28.393787977430552
 30
0.0
 10
165.42383897569442
 20
28.084418402777775
 30
0.0
 10
164.83266059027775
 20
27.690988498263888
 30
0.0
 10
164.49504123263887
 20
27.12771538628472
 30
0.0
 10
164.49504123263887
 20
26.480037434895831
 30
0.0
 10
164.49504123263887
 20
25.832703993055553
 30
0.0
 10
164.83266059027775
 20
25.186059570312498
 30
0.0
 10
165.42383897569442
 20
24.847751193576386
 30
0.0
 10
166.0429226345486
 20
24.538381618923609
 30
0.0
 10
166.77431640624999
 20
24.538381618923609
 30
0.0
 10
167.36515028211804
 20
24.847751193576386
 30
0.0
 10
167.95563964843748
 20
25.186059570312498
 30
0.0
 10
168.29360351562499
 20
25.832703993055553
 30
0.0
 10
168.29360351562499
 20
26.480037434895831
 30
0.0
  0
SPLINE
  5
AE
100
AcDbEntity
  8
0
 62
   250
100
AcDbSpline
210
0.0
220
0.0
230
1.0
 70
     8
 71
     3
 72
    23
 73
    19
 74
     0
 42
0.00000001
 43
0.00000001
 40
0.0
 40
0.0
 40
0.0
 40
0.0
 40
1.0
 40
1.0
 40
1.0
 40
2.0
 40
2.0
 40
2.0
 40
3.0
 40
3.0
 40
3.0
 40
4.0
 40
4.0
 40
4.0
 40
5.0
 40
5.0
 40
5.0
 40
6.0
 40
6.0
 40
6.0
 40
6.0
 10
167.36515028211804
 20
26.480037434895831
 30
0.0
 10
167.36515028211804
 20
26.790096028645831
 30
0.0
 10
167.16877983940969
 20
27.12771538628472
 30
0.0
 10
166.88697102864583
 20
27.240714518229165
 30
0.0
 10
166.57760145399305
 20
27.437084960937497
 30
0.0
 10
166.23963758680554
 20
27.437084960937497
 30
0.0
 10
165.90201822916666
 20
27.240714518229165
 30
0.0
 10
165.62089843749999
 20
27.12771538628472
 30
0.0
 10
165.42383897569442
 20
26.790096028645831
 30
0.0
 10
165.42383897569442
 20
26.480037434895831
 30
0.0
 10
165.42383897569442
 20
26.142762586805553
 30
0.0
 10
165.62089843749999
 20
25.832703993055553
 30
0.0
 10
165.90201822916666
 20
25.636333550347221
 30
0.0
 10
166.23963758680554
 20
25.495773654513886
 30
0.0
 10
166.57760145399305
 20
25.495773654513886
 30
0.0
 10
166.88697102864583
 20
25.636333550347221
 30
0.0
 10
167.16877983940969
 20
25.832703993055553
 30
0.0
 10
167.36515028211804
 20
26.142762586805553
 30
0.0
 10
167.36515028211804
 20
26.480037434895831
 30
0.0
  0
SPLINE
  5
AD
100
AcDbEntity
  8
0
 62
   250
100
AcDbSpline
210
0.0
220
0.0
230
1.0
 70
     8
 71
     3
 72
    23
 73
    19
 74
     0
 42
0.00000001
 43
0.00000001
 40
0.0
 40
0.0
 40
0.0
 40
0.0
 40
1.0
 40
1.0
 40
1.0
 40
2.0
 40
2.0
 40
2.0
 40
3.0
 40
3.0
 40
3.0
 40
4.0
 40
4.0
 40
4.0
 40
5.0
 40
5.0
 40
5.0
 40
6.0
 40
6.0
 40
6.0
 40
6.0
 10
166.77431640624999
 20
26.480037434895831
 30
0.0
 10
166.77431640624999
 20
26.593381076388887
 30
0.0
 10
166.68991156684027
 20
26.677785915798609
 30
0.0
 10
166.57760145399305
 20
26.733251953124999
 30
0.0
 10
166.43635253906248
 20
26.790096028645831
 30
0.0
 10
166.29613715277776
 20
26.790096028645831
 30
0.0
 10
166.23963758680554
 20
26.733251953124999
 30
0.0
 10
166.09907769097219
 20
26.677785915798609
 30
0.0
 10
166.0429226345486
 20
26.593381076388887
 30
0.0
 10
166.0429226345486
 20
26.480037434895831
 30
0.0
 10
166.0429226345486
 20
26.339477539062496
 30
0.0
 10
166.09907769097219
 20
26.227167426215274
 30
0.0
 10
166.23963758680554
 20
26.142762586805553
 30
0.0
 10
166.29613715277776
 20
26.086263020833332
 30
0.0
 10
166.43635253906248
 20
26.086263020833332
 30
0.0
 10
166.57760145399305
 20
26.142762586805553
 30
0.0
 10
166.68991156684027
 20
26.227167426215274
 30
0.0
 10
166.77431640624999
 20
26.339477539062496
 30
0.0
 10
166.77431640624999
 20
26.480037434895831
 30
0.0
  0
SPLINE
  5
AC
100
AcDbEntity
  8
0
 62
     7
100
AcDbSpline
210
0.0
220
0.0
230
1.0
 70
     8
 71
     3
 72
    11
 73
     7
 74
     0
 42
0.00000001
 43
0.00000001
 40
0.0
 40
0.0
 40
0.0
 40
0.0
 40
1.0
 40
1.0
 40
1.0
 40
2.0
 40
2.0
 40
2.0
 40
2.0
 10
156.47175835503469
 20
26.509665256076385
 30
0.0
 10
156.44488661024303
 20
28.495073784722219
 30
0.0
 10
155.01689453124999
 20
29.821435546874998
 30
0.0
 10
153.01047092013889
 20
30.056046549479163
 30
0.0
 10
150.93721245659719
 20
30.068793402777775
 30
0.0
 10
149.15127495659721
 20
28.545372178819441
 30
0.0
 10
149.21121961805554
 20
26.509665256076385
 30
0.0
  0
SPLINE
  5
AB
100
AcDbEntity
  8
0
 62
     7
100
AcDbSpline
210
0.0
220
0.0
230
1.0
 70
     8
 71
     3
 72
    11
 73
     7
 74
     0
 42
0.00000001
 43
0.00000001
 40
0.0
 40
0.0
 40
0.0
 40
0.0
 40
1.0
 40
1.0
 40
1.0
 40
2.0
 40
2.0
 40
2.0
 40
2.0
 10
149.07065972222222
 20
26.509665256076385
 30
0.0
 10
149.12509223090277
 20
28.398266601562497
 30
0.0
 10
150.80974392361111
 20
30.146652560763886
 30
0.0
 10
152.81341145833332
 20
30.111512586805553
 30
0.0
 10
154.82672526041665
 20
30.180414496527774
 30
0.0
 10
156.57683376736111
 20
28.432717556423608
 30
0.0
 10
156.55650770399305
 20
26.509665256076385
 30
0.0
  0
LINE
  5
AA
100
AcDbEntity
  8
0
 62
     7
100
AcDbLine
 10
156.556508
 20
26.509665
 30
0.0
 11
156.471758
 21
26.509665
 31
0.0
  0
LINE
  5
A9
100
AcDbEntity
  8
0
 62
     7
100
AcDbLine
 10
149.21122
 20
26.509665
 30
0.0
 11
149.07066
 21
26.509665
 31
0.0
  0
SPLINE
  5
A8
100
AcDbEntity
  8
0
 62
     7
100
AcDbSpline
210
0.0
220
0.0
230
1.0
 70
     8
 71
     3
 72
    14
 73
    10
 74
     0
 42
0.00000001
 43
0.00000001
 40
0.0
 40
0.0
 40
0.0
 40
0.0
 40
1.0
 40
1.0
 40
1.0
 40
2.0
 40
2.0
 40
2.0
 40
3.0
 40
3.0
 40
3.0
 40
3.0
 10
156.47175835503469
 20
26.509665256076385
 30
0.0
 10
156.43627387152776
 20
25.363137478298608
 30
0.0
 10
156.24024793836804
 20
25.072715928819441
 30
0.0
 10
155.59946017795139
 20
24.173890516493053
 30
0.0
 10
154.97210828993053
 20
23.433539496527775
 30
0.0
 10
153.98060980902775
 20
22.983265516493052
 30
0.0
 10
153.01047092013889
 20
22.963283962673611
 30
0.0
 10
150.96959635416664
 20
22.776559787326388
 30
0.0
 10
149.09994303385415
 20
24.576622178819441
 30
0.0
 10
149.21121961805554
 20
26.509665256076385
 30
0.0
  0
SPLINE
  5
A7
100
AcDbEntity
  8
0
 62
     7
100
AcDbSpline
210
0.0
220
0.0
230
1.0
 70
     8
 71
     3
 72
     8
 73
     4
 74
     0
 42
0.00000001
 43
0.00000001
 40
0.0
 40
0.0
 40
0.0
 40
0.0
 40
1.0
 40
1.0
 40
1.0
 40
1.0
 10
156.55650770399305
 20
26.509665256076385
 30
0.0
 10
156.34670138888887
 20
21.677918836805553
 30
0.0
 10
149.36900499131943
 20
21.712025282118052
 30
0.0
 10
149.07065972222222
 20
26.509665256076385
 30
0.0
  0
POLYLINE
  5
A2
100
AcDbEntity
  8
0
 62
     7
100
AcDb2dPolyline
 66
     1
 10
0.0
 20
0.0
 30
0.0
  0
VERTEX
  5
A3
100
AcDbEntity
  8
0
 62
     7
100
AcDbVertex
100
AcDb2dVertex
 10
149.07066
 20
26.509665
 30
0.0
  0
VERTEX
  5
A4
100
AcDbEntity
  8
0
 62
     7
100
AcDbVertex
100
AcDb2dVertex
 10
149.21122
 20
26.509665
 30
0.0
  0
VERTEX
  5
A5
100
AcDbEntity
  8
0
 62
     7
100
AcDbVertex
100
AcDb2dVertex
 10
149.21122
 20
26.509665
 30
0.0
  0
SEQEND
  5
A6
100
AcDbEntity
  8
0
 62
     7
  0
LINE
  5
A1
100
AcDbEntity
  8
0
 62
     7
100
AcDbLine
 10
156.471758
 20
26.509665
 30
0.0
 11
156.556508
 21
26.509665
 31
0.0
  0
LINE
  5
A0
100
AcDbEntity
  8
0
 62
   250
100
AcDbLine
 10
150.083862
 20
26.959595
 30
0.0
 11
150.083862
 21
26.059391
 31
0.0
  0
LINE
  5
9F
100
AcDbEntity
  8
0
 62
   250
100
AcDbLine
 10
150.083862
 20
26.959595
 30
0.0
 11
150.674352
 21
26.959595
 31
0.0
  0
LINE
  5
9E
100
AcDbEntity
  8
0
 62
   250
100
AcDbLine
 10
150.083862
 20
26.059391
 30
0.0
 11
150.674352
 21
26.059391
 31
0.0
  0
LINE
  5
9D
100
AcDbEntity
  8
0
 62
   250
100
AcDbLine
 10
155.48715
 20
26.959595
 30
0.0
 11
155.48715
 21
26.059391
 31
0.0
  0
LINE
  5
9C
100
AcDbEntity
  8
0
 62
   250
100
AcDbLine
 10
155.48715
 20
26.959595
 30
0.0
 11
154.867722
 21
26.959595
 31
0.0
  0
LINE
  5
9B
100
AcDbEntity
  8
0
 62
   250
100
AcDbLine
 10
155.48715
 20
26.059391
 30
0.0
 11
154.867722
 21
26.059391
 31
0.0
  0
SPLINE
  5
9A
100
AcDbEntity
  8
0
 62
   250
100
AcDbSpline
210
0.0
220
0.0
230
1.0
 70
     8
 71
     3
 72
    23
 73
    19
 74
     0
 42
0.00000001
 43
0.00000001
 40
0.0
 40
0.0
 40
0.0
 40
0.0
 40
1.0
 40
1.0
 40
1.0
 40
2.0
 40
2.0
 40
2.0
 40
3.0
 40
3.0
 40
3.0
 40
4.0
 40
4.0
 40
4.0
 40
5.0
 40
5.0
 40
5.0
 40
6.0
 40
6.0
 40
6.0
 40
6.0
 10
154.9521267361111
 20
26.509665256076385
 30
0.0
 10
154.9521267361111
 20
27.212464735243053
 30
0.0
 10
154.47429199218749
 20
27.916986762152774
 30
0.0
 10
153.79905327690972
 20
28.310761176215276
 30
0.0
 10
153.20753038194442
 20
28.619786241319442
 30
0.0
 10
152.33454318576386
 20
28.619786241319442
 30
0.0
 10
151.6875542534722
 20
28.310761176215276
 30
0.0
 10
151.01266004774305
 20
27.916986762152774
 30
0.0
 10
150.61716308593748
 20
27.212464735243053
 30
0.0
 10
150.61716308593748
 20
26.509665256076385
 30
0.0
 10
150.61716308593748
 20
25.721427408854165
 30
0.0
 10
151.01266004774305
 20
25.074093967013887
 30
0.0
 10
151.6875542534722
 20
24.708224826388886
 30
0.0
 10
152.33454318576386
 20
24.314794921874999
 30
0.0
 10
153.20753038194442
 20
24.314794921874999
 30
0.0
 10
153.79905327690972
 20
24.708224826388886
 30
0.0
 10
154.47429199218749
 20
25.074093967013887
 30
0.0
 10
154.9521267361111
 20
25.721427408854165
 30
0.0
 10
154.9521267361111
 20
26.509665256076385
 30
0.0
  0
SPLINE
  5
99
100
AcDbEntity
  8
0
 62
   250
100
AcDbSpline
210
0.0
220
0.0
230
1.0
 70
     8
 71
     3
 72
    23
 73
    19
 74
     0
 42
0.00000001
 43
0.00000001
 40
0.0
 40
0.0
 40
0.0
 40
0.0
 40
1.0
 40
1.0
 40
1.0
 40
2.0
 40
2.0
 40
2.0
 40
3.0
 40
3.0
 40
3.0
 40
4.0
 40
4.0
 40
4.0
 40
5.0
 40
5.0
 40
5.0
 40
6.0
 40
6.0
 40
6.0
 40
6.0
 10
152.7569118923611
 20
29.408024088541666
 30
0.0
 10
151.6875542534722
 20
29.408024088541666
 30
0.0
 10
150.75910101996527
 20
28.81753472222222
 30
0.0
 10
150.22407769097219
 20
27.916986762152774
 30
0.0
 10
149.68905436197915
 20
27.016094292534721
 30
0.0
 10
149.68905436197915
 20
25.91848687065972
 30
0.0
 10
150.22407769097219
 20
25.017594401041663
 30
0.0
 10
150.75910101996527
 20
24.173890516493053
 30
0.0
 10
151.6875542534722
 20
23.611306423611108
 30
0.0
 10
152.7569118923611
 20
23.611306423611108
 30
0.0
 10
153.79905327690972
 20
23.611306423611108
 30
0.0
 10
154.81156684027778
 20
24.173890516493053
 30
0.0
 10
155.3459011501736
 20
25.017594401041663
 30
0.0
 10
155.88057996961805
 20
25.91848687065972
 30
0.0
 10
155.88057996961805
 20
27.016094292534721
 30
0.0
 10
155.3459011501736
 20
27.916986762152774
 30
0.0
 10
154.81156684027778
 20
28.81753472222222
 30
0.0
 10
153.79905327690972
 20
29.408024088541666
 30
0.0
 10
152.7569118923611
 20
29.408024088541666
 30
0.0
  0
SPLINE
  5
98
100
AcDbEntity
  8
0
 62
   250
100
AcDbSpline
210
0.0
220
0.0
230
1.0
 70
     8
 71
     3
 72
    23
 73
    19
 74
     0
 42
0.00000001
 43
0.00000001
 40
0.0
 40
0.0
 40
0.0
 40
0.0
 40
1.0
 40
1.0
 40
1.0
 40
2.0
 40
2.0
 40
2.0
 40
3.0
 40
3.0
 40
3.0
 40
4.0
 40
4.0
 40
4.0
 40
5.0
 40
5.0
 40
5.0
 40
6.0
 40
6.0
 40
6.0
 40
6.0
 10
154.67031792534721
 20
26.509665256076385
 30
0.0
 10
154.67031792534721
 20
27.157343207465274
 30
0.0
 10
154.33269856770832
 20
27.720271809895831
 30
0.0
 10
153.74152018229165
 20
28.11335720486111
 30
0.0
 10
153.15068630642361
 20
28.423071289062499
 30
0.0
 10
152.41894802517359
 20
28.423071289062499
 30
0.0
 10
151.80020887586804
 20
28.11335720486111
 30
0.0
 10
151.20937499999999
 20
27.720271809895831
 30
0.0
 10
150.87175564236111
 20
27.157343207465274
 30
0.0
 10
150.87175564236111
 20
26.509665256076385
 30
0.0
 10
150.87175564236111
 20
25.862331814236107
 30
0.0
 10
151.20937499999999
 20
25.214998372395829
 30
0.0
 10
151.80020887586804
 20
24.877379014756944
 30
0.0
 10
152.41894802517359
 20
24.567664930555555
 30
0.0
 10
153.15068630642361
 20
24.567664930555555
 30
0.0
 10
153.74152018229165
 20
24.877379014756944
 30
0.0
 10
154.33269856770832
 20
25.214998372395829
 30
0.0
 10
154.67031792534721
 20
25.862331814236107
 30
0.0
 10
154.67031792534721
 20
26.509665256076385
 30
0.0
  0
SPLINE
  5
97
100
AcDbEntity
  8
0
 62
   250
100
AcDbSpline
210
0.0
220
0.0
230
1.0
 70
     8
 71
     3
 72
    23
 73
    19
 74
     0
 42
0.00000001
 43
0.00000001
 40
0.0
 40
0.0
 40
0.0
 40
0.0
 40
1.0
 40
1.0
 40
1.0
 40
2.0
 40
2.0
 40
2.0
 40
3.0
 40
3.0
 40
3.0
 40
4.0
 40
4.0
 40
4.0
 40
5.0
 40
5.0
 40
5.0
 40
6.0
 40
6.0
 40
6.0
 40
6.0
 10
153.74152018229165
 20
26.509665256076385
 30
0.0
 10
153.74152018229165
 20
26.819379340277774
 30
0.0
 10
153.54514973958331
 20
27.157343207465274
 30
0.0
 10
153.26265190972219
 20
27.269653320312496
 30
0.0
 10
152.95362684461804
 20
27.466712782118051
 30
0.0
 10
152.61635199652775
 20
27.466712782118051
 30
0.0
 10
152.27804361979165
 20
27.269653320312496
 30
0.0
 10
151.99657931857638
 20
27.157343207465274
 30
0.0
 10
151.80020887586804
 20
26.819379340277774
 30
0.0
 10
151.80020887586804
 20
26.509665256076385
 30
0.0
 10
151.80020887586804
 20
26.171701388888888
 30
0.0
 10
151.99657931857638
 20
25.862331814236107
 30
0.0
 10
152.27804361979165
 20
25.665272352430552
 30
0.0
 10
152.61635199652775
 20
25.525056966145829
 30
0.0
 10
152.95362684461804
 20
25.525056966145829
 30
0.0
 10
153.26265190972219
 20
25.665272352430552
 30
0.0
 10
153.54514973958331
 20
25.862331814236107
 30
0.0
 10
153.74152018229165
 20
26.171701388888888
 30
0.0
 10
153.74152018229165
 20
26.509665256076385
 30
0.0
  0
SPLINE
  5
96
100
AcDbEntity
  8
0
 62
   250
100
AcDbSpline
210
0.0
220
0.0
230
1.0
 70
     8
 71
     3
 72
    23
 73
    19
 74
     0
 42
0.00000001
 43
0.00000001
 40
0.0
 40
0.0
 40
0.0
 40
0.0
 40
1.0
 40
1.0
 40
1.0
 40
2.0
 40
2.0
 40
2.0
 40
3.0
 40
3.0
 40
3.0
 40
4.0
 40
4.0
 40
4.0
 40
5.0
 40
5.0
 40
5.0
 40
6.0
 40
6.0
 40
6.0
 40
6.0
 10
153.15068630642361
 20
26.509665256076385
 30
0.0
 10
153.15068630642361
 20
26.622319878472219
 30
0.0
 10
153.06593695746525
 20
26.706724717881944
 30
0.0
 10
152.95362684461804
 20
26.76219075520833
 30
0.0
 10
152.81341145833332
 20
26.819379340277774
 30
0.0
 10
152.6728515625
 20
26.819379340277774
 30
0.0
 10
152.61635199652775
 20
26.76219075520833
 30
0.0
 10
152.47510308159721
 20
26.706724717881944
 30
0.0
 10
152.41894802517359
 20
26.622319878472219
 30
0.0
 10
152.41894802517359
 20
26.509665256076385
 30
0.0
 10
152.41894802517359
 20
26.368416341145831
 30
0.0
 10
152.47510308159721
 20
26.256795247395832
 30
0.0
 10
152.61635199652775
 20
26.171701388888888
 30
0.0
 10
152.6728515625
 20
26.115546332465275
 30
0.0
 10
152.81341145833332
 20
26.115546332465275
 30
0.0
 10
152.95362684461804
 20
26.171701388888888
 30
0.0
 10
153.06593695746525
 20
26.256795247395832
 30
0.0
 10
153.15068630642361
 20
26.368416341145831
 30
0.0
 10
153.15068630642361
 20
26.509665256076385
 30
0.0
  0
SPLINE
  5
95
100
AcDbEntity
  8
0
 62
     7
100
AcDbSpline
210
0.0
220
0.0
230
1.0
 70
     8
 71
     3
 72
    11
 73
     7
 74
     0
 42
0.00000001
 43
0.00000001
 40
0.0
 40
0.0
 40
0.0
 40
0.0
 40
1.0
 40
1.0
 40
1.0
 40
2.0
 40
2.0
 40
2.0
 40
2.0
 10
143.0148708767361
 20
26.480037434895831
 30
0.0
 10
142.98799913194443
 20
28.465790473090276
 30
0.0
 10
141.56000705295136
 20
29.792152235243051
 30
0.0
 10
139.55289442274304
 20
30.026074218749997
 30
0.0
 10
137.48066948784722
 20
30.03985460069444
 30
0.0
 10
135.69438747829861
 20
28.51643337673611
 30
0.0
 10
135.75467664930554
 20
26.480037434895831
 30
0.0
  0
SPLINE
  5
94
100
AcDbEntity
  8
0
 62
     7
100
AcDbSpline
210
0.0
220
0.0
230
1.0
 70
     8
 71
     3
 72
    11
 73
     7
 74
     0
 42
0.00000001
 43
0.00000001
 40
0.0
 40
0.0
 40
0.0
 40
0.0
 40
1.0
 40
1.0
 40
1.0
 40
2.0
 40
2.0
 40
2.0
 40
2.0
 10
135.61342773437499
 20
26.480037434895831
 30
0.0
 10
135.66854926215277
 20
28.369327799479166
 30
0.0
 10
137.35354546440971
 20
30.11736924913194
 30
0.0
 10
139.35686848958332
 20
30.082573784722218
 30
0.0
 10
141.37018229166665
 20
30.151131184895831
 30
0.0
 10
143.12029079861111
 20
28.403089735243054
 30
0.0
 10
143.09927571614583
 20
26.480037434895831
 30
0.0
  0
LINE
  5
93
100
AcDbEntity
  8
0
 62
     7
100
AcDbLine
 10
143.099276
 20
26.845907
 30
0.0
 11
143.014871
 21
26.845907
 31
0.0
  0
LINE
  5
92
100
AcDbEntity
  8
0
 62
     7
100
AcDbLine
 10
135.754677
 20
26.480037
 30
0.0
 11
135.613428
 21
26.480037
 31
0.0
  0
SPLINE
  5
91
100
AcDbEntity
  8
0
 62
     7
100
AcDbSpline
210
0.0
220
0.0
230
1.0
 70
     8
 71
     3
 72
    14
 73
    10
 74
     0
 42
0.00000001
 43
0.00000001
 40
0.0
 40
0.0
 40
0.0
 40
0.0
 40
1.0
 40
1.0
 40
1.0
 40
2.0
 40
2.0
 40
2.0
 40
3.0
 40
3.0
 40
3.0
 40
3.0
 10
143.0148708767361
 20
26.480037434895831
 30
0.0
 10
142.97973090277776
 20
25.333854166666665
 30
0.0
 10
142.78370496961804
 20
25.044121636284721
 30
0.0
 10
142.14257269965276
 20
24.14460720486111
 30
0.0
 10
141.51487630208331
 20
23.404945203993055
 30
0.0
 10
140.52406684027775
 20
22.953637695312498
 30
0.0
 10
139.55289442274304
 20
22.934345160590276
 30
0.0
 10
137.51305338541664
 20
22.747276475694441
 30
0.0
 10
135.64305555555555
 20
24.54768337673611
 30
0.0
 10
135.75467664930554
 20
26.480037434895831
 30
0.0
  0
SPLINE
  5
90
100
AcDbEntity
  8
0
 62
     7
100
AcDbSpline
210
0.0
220
0.0
230
1.0
 70
     8
 71
     3
 72
     8
 73
     4
 74
     0
 42
0.00000001
 43
0.00000001
 40
0.0
 40
0.0
 40
0.0
 40
0.0
 40
1.0
 40
1.0
 40
1.0
 40
1.0
 10
143.09927571614583
 20
26.480037434895831
 30
0.0
 10
142.89015842013887
 20
21.64863552517361
 30
0.0
 10
135.91246202256943
 20
21.682741970486109
 30
0.0
 10
135.61342773437499
 20
26.480037434895831
 30
0.0
  0
POLYLINE
  5
8B
100
AcDbEntity
  8
0
 62
     7
100
AcDb2dPolyline
 66
     1
 10
0.0
 20
0.0
 30
0.0
  0
VERTEX
  5
8C
100
AcDbEntity
  8
0
 62
     7
100
AcDbVertex
100
AcDb2dVertex
 10
135.613428
 20
26.480037
 30
0.0
  0
VERTEX
  5
8D
100
AcDbEntity
  8
0
 62
     7
100
AcDbVertex
100
AcDb2dVertex
 10
135.754677
 20
26.480037
 30
0.0
  0
VERTEX
  5
8E
100
AcDbEntity
  8
0
 62
     7
100
AcDbVertex
100
AcDb2dVertex
 10
135.754677
 20
26.480037
 30
0.0
  0
SEQEND
  5
8F
100
AcDbEntity
  8
0
 62
     7
  0
LINE
  5
8A
100
AcDbEntity
  8
0
 62
     7
100
AcDbLine
 10
143.014871
 20
26.845907
 30
0.0
 11
143.099276
 21
26.845907
 31
0.0
  0
LINE
  5
89
100
AcDbEntity
  8
0
 62
   250
100
AcDbLine
 10
136.626975
 20
26.930311
 30
0.0
 11
136.626975
 21
26.031141
 31
0.0
  0
LINE
  5
88
100
AcDbEntity
  8
0
 62
   250
100
AcDbLine
 10
136.626975
 20
26.930311
 30
0.0
 11
137.217464
 21
26.930311
 31
0.0
  0
LINE
  5
87
100
AcDbEntity
  8
0
 62
   250
100
AcDbLine
 10
136.626975
 20
26.031141
 30
0.0
 11
137.217464
 21
26.031141
 31
0.0
  0
LINE
  5
86
100
AcDbEntity
  8
0
 62
   250
100
AcDbLine
 10
142.030607
 20
27.296181
 30
0.0
 11
142.030607
 21
26.396666
 31
0.0
  0
LINE
  5
85
100
AcDbEntity
  8
0
 62
   250
100
AcDbLine
 10
142.030607
 20
26.930311
 30
0.0
 11
141.410834
 21
26.930311
 31
0.0
  0
LINE
  5
84
100
AcDbEntity
  8
0
 62
   250
100
AcDbLine
 10
142.030607
 20
26.031141
 30
0.0
 11
141.410834
 21
26.031141
 31
0.0
  0
SPLINE
  5
83
100
AcDbEntity
  8
0
 62
   250
100
AcDbSpline
210
0.0
220
0.0
230
1.0
 70
     8
 71
     3
 72
    23
 73
    19
 74
     0
 42
0.00000001
 43
0.00000001
 40
0.0
 40
0.0
 40
0.0
 40
0.0
 40
1.0
 40
1.0
 40
1.0
 40
2.0
 40
2.0
 40
2.0
 40
3.0
 40
3.0
 40
3.0
 40
4.0
 40
4.0
 40
4.0
 40
5.0
 40
5.0
 40
5.0
 40
6.0
 40
6.0
 40
6.0
 40
6.0
 10
141.4955837673611
 20
26.480037434895831
 30
0.0
 10
141.4955837673611
 20
27.18318142361111
 30
0.0
 10
141.01671549479164
 20
27.887703450520831
 30
0.0
 10
140.34216579861109
 20
28.28147786458333
 30
0.0
 10
139.7502983940972
 20
28.590847439236107
 30
0.0
 10
138.87800021701386
 20
28.590847439236107
 30
0.0
 10
138.2306667751736
 20
28.28147786458333
 30
0.0
 10
137.55577256944443
 20
27.887703450520831
 30
0.0
 10
137.1609646267361
 20
27.18318142361111
 30
0.0
 10
137.1609646267361
 20
26.480037434895831
 30
0.0
 10
137.1609646267361
 20
25.692833116319441
 30
0.0
 10
137.55577256944443
 20
25.044466145833329
 30
0.0
 10
138.2306667751736
 20
24.678941514756943
 30
0.0
 10
138.87800021701386
 20
24.285511610243052
 30
0.0
 10
139.7502983940972
 20
24.285511610243052
 30
0.0
 10
140.34216579861109
 20
24.678941514756943
 30
0.0
 10
141.01671549479164
 20
25.044466145833329
 30
0.0
 10
141.4955837673611
 20
25.692833116319441
 30
0.0
 10
141.4955837673611
 20
26.480037434895831
 30
0.0
  0
SPLINE
  5
82
100
AcDbEntity
  8
0
 62
   250
100
AcDbSpline
210
0.0
220
0.0
230
1.0
 70
     8
 71
     3
 72
    23
 73
    19
 74
     0
 42
0.00000001
 43
0.00000001
 40
0.0
 40
0.0
 40
0.0
 40
0.0
 40
1.0
 40
1.0
 40
1.0
 40
2.0
 40
2.0
 40
2.0
 40
3.0
 40
3.0
 40
3.0
 40
4.0
 40
4.0
 40
4.0
 40
5.0
 40
5.0
 40
5.0
 40
6.0
 40
6.0
 40
6.0
 40
6.0
 10
139.3007134331597
 20
29.379085286458331
 30
0.0
 10
138.2306667751736
 20
29.379085286458331
 30
0.0
 10
137.30221354166665
 20
28.788251410590274
 30
0.0
 10
136.7671902126736
 20
27.887703450520831
 30
0.0
 10
136.23320041232637
 20
26.987155490451386
 30
0.0
 10
136.23320041232637
 20
25.888859049479166
 30
0.0
 10
136.7671902126736
 20
24.988655598958331
 30
0.0
 10
137.30221354166665
 20
24.14460720486111
 30
0.0
 10
138.2306667751736
 20
23.582023111979165
 30
0.0
 10
139.3007134331597
 20
23.582023111979165
 30
0.0
 10
140.34216579861109
 20
23.582023111979165
 30
0.0
 10
141.35433485243055
 20
24.14460720486111
 30
0.0
 10
141.8893581814236
 20
24.988655598958331
 30
0.0
 10
142.42403700086805
 20
25.888859049479166
 30
0.0
 10
142.42403700086805
 20
26.987155490451386
 30
0.0
 10
141.8893581814236
 20
27.887703450520831
 30
0.0
 10
141.35433485243055
 20
28.788251410590274
 30
0.0
 10
140.34216579861109
 20
29.379085286458331
 30
0.0
 10
139.3007134331597
 20
29.379085286458331
 30
0.0
  0
SPLINE
  5
81
100
AcDbEntity
  8
0
 62
   250
100
AcDbSpline
210
0.0
220
0.0
230
1.0
 70
     8
 71
     3
 72
    23
 73
    19
 74
     0
 42
0.00000001
 43
0.00000001
 40
0.0
 40
0.0
 40
0.0
 40
0.0
 40
1.0
 40
1.0
 40
1.0
 40
2.0
 40
2.0
 40
2.0
 40
3.0
 40
3.0
 40
3.0
 40
4.0
 40
4.0
 40
4.0
 40
5.0
 40
5.0
 40
5.0
 40
6.0
 40
6.0
 40
6.0
 40
6.0
 10
141.21343044704861
 20
26.480037434895831
 30
0.0
 10
141.21343044704861
 20
27.12771538628472
 30
0.0
 10
140.87650010850695
 20
27.690988498263888
 30
0.0
 10
140.28532172309028
 20
28.084418402777775
 30
0.0
 10
139.69379882812498
 20
28.393787977430552
 30
0.0
 10
138.96206054687499
 20
28.393787977430552
 30
0.0
 10
138.34332139756944
 20
28.084418402777775
 30
0.0
 10
137.75248752170137
 20
27.690988498263888
 30
0.0
 10
137.41452365451389
 20
27.12771538628472
 30
0.0
 10
137.41452365451389
 20
26.480037434895831
 30
0.0
 10
137.41452365451389
 20
25.832703993055553
 30
0.0
 10
137.75248752170137
 20
25.186059570312498
 30
0.0
 10
138.34332139756944
 20
24.847751193576386
 30
0.0
 10
138.96206054687499
 20
24.538381618923609
 30
0.0
 10
139.69379882812498
 20
24.538381618923609
 30
0.0
 10
140.28532172309028
 20
24.847751193576386
 30
0.0
 10
140.87650010850695
 20
25.186059570312498
 30
0.0
 10
141.21343044704861
 20
25.832703993055553
 30
0.0
 10
141.21343044704861
 20
26.480037434895831
 30
0.0
  0
SPLINE
  5
80
100
AcDbEntity
  8
0
 62
   250
100
AcDbSpline
210
0.0
220
0.0
230
1.0
 70
     8
 71
     3
 72
    23
 73
    19
 74
     0
 42
0.00000001
 43
0.00000001
 40
0.0
 40
0.0
 40
0.0
 40
0.0
 40
1.0
 40
1.0
 40
1.0
 40
2.0
 40
2.0
 40
2.0
 40
3.0
 40
3.0
 40
3.0
 40
4.0
 40
4.0
 40
4.0
 40
5.0
 40
5.0
 40
5.0
 40
6.0
 40
6.0
 40
6.0
 40
6.0
 10
140.28532172309028
 20
26.480037434895831
 30
0.0
 10
140.28532172309028
 20
26.790096028645831
 30
0.0
 10
140.08757324218749
 20
27.12771538628472
 30
0.0
 10
139.80645345052082
 20
27.240714518229165
 30
0.0
 10
139.49639485677082
 20
27.437084960937497
 30
0.0
 10
139.15980902777775
 20
27.437084960937497
 30
0.0
 10
138.82184516059027
 20
27.240714518229165
 30
0.0
 10
138.54038085937498
 20
27.12771538628472
 30
0.0
 10
138.34332139756944
 20
26.790096028645831
 30
0.0
 10
138.34332139756944
 20
26.480037434895831
 30
0.0
 10
138.34332139756944
 20
26.142762586805553
 30
0.0
 10
138.54038085937498
 20
25.832703993055553
 30
0.0
 10
138.82184516059027
 20
25.636333550347221
 30
0.0
 10
139.15980902777775
 20
25.495773654513886
 30
0.0
 10
139.49639485677082
 20
25.495773654513886
 30
0.0
 10
139.80645345052082
 20
25.636333550347221
 30
0.0
 10
140.08757324218749
 20
25.832703993055553
 30
0.0
 10
140.28532172309028
 20
26.142762586805553
 30
0.0
 10
140.28532172309028
 20
26.480037434895831
 30
0.0
  0
SPLINE
  5
7F
100
AcDbEntity
  8
0
 62
   250
100
AcDbSpline
210
0.0
220
0.0
230
1.0
 70
     8
 71
     3
 72
    23
 73
    19
 74
     0
 42
0.00000001
 43
0.00000001
 40
0.0
 40
0.0
 40
0.0
 40
0.0
 40
1.0
 40
1.0
 40
1.0
 40
2.0
 40
2.0
 40
2.0
 40
3.0
 40
3.0
 40
3.0
 40
4.0
 40
4.0
 40
4.0
 40
5.0
 40
5.0
 40
5.0
 40
6.0
 40
6.0
 40
6.0
 40
6.0
 10
139.69379882812498
 20
26.480037434895831
 30
0.0
 10
139.69379882812498
 20
26.593381076388887
 30
0.0
 10
139.60904947916666
 20
26.677785915798609
 30
0.0
 10
139.49639485677082
 20
26.733251953124999
 30
0.0
 10
139.35686848958332
 20
26.790096028645831
 30
0.0
 10
139.21561957465278
 20
26.790096028645831
 30
0.0
 10
139.15980902777775
 20
26.733251953124999
 30
0.0
 10
139.01856011284721
 20
26.677785915798609
 30
0.0
 10
138.96206054687499
 20
26.593381076388887
 30
0.0
 10
138.96206054687499
 20
26.480037434895831
 30
0.0
 10
138.96206054687499
 20
26.339477539062496
 30
0.0
 10
139.01856011284721
 20
26.227167426215274
 30
0.0
 10
139.15980902777775
 20
26.142762586805553
 30
0.0
 10
139.21561957465278
 20
26.086263020833332
 30
0.0
 10
139.35686848958332
 20
26.086263020833332
 30
0.0
 10
139.49639485677082
 20
26.142762586805553
 30
0.0
 10
139.60904947916666
 20
26.227167426215274
 30
0.0
 10
139.69379882812498
 20
26.339477539062496
 30
0.0
 10
139.69379882812498
 20
26.480037434895831
 30
0.0
  0
SPLINE
  5
7E
100
AcDbEntity
  8
0
 62
     7
100
AcDbSpline
210
0.0
220
0.0
230
1.0
 70
     8
 71
     3
 72
    11
 73
     7
 74
     0
 42
0.00000001
 43
0.00000001
 40
0.0
 40
0.0
 40
0.0
 40
0.0
 40
1.0
 40
1.0
 40
1.0
 40
2.0
 40
2.0
 40
2.0
 40
2.0
 10
129.14112684461804
 20
26.509665256076385
 30
0.0
 10
129.11391059027775
 20
28.495073784722219
 30
0.0
 10
127.68591851128471
 20
29.821435546874998
 30
0.0
 10
125.67880588107637
 20
30.056046549479163
 30
0.0
 10
123.60623643663193
 20
30.068793402777775
 30
0.0
 10
121.82029893663193
 20
28.545372178819441
 30
0.0
 10
121.88024359809026
 20
26.509665256076385
 30
0.0
  0
SPLINE
  5
7D
100
AcDbEntity
  8
0
 62
     7
100
AcDbSpline
210
0.0
220
0.0
230
1.0
 70
     8
 71
     3
 72
    11
 73
     7
 74
     0
 42
0.00000001
 43
0.00000001
 40
0.0
 40
0.0
 40
0.0
 40
0.0
 40
1.0
 40
1.0
 40
1.0
 40
2.0
 40
2.0
 40
2.0
 40
2.0
 10
121.73933919270833
 20
26.509665256076385
 30
0.0
 10
121.7944607204861
 20
28.398266601562497
 30
0.0
 10
123.47945692274304
 20
30.146652560763886
 30
0.0
 10
125.48243543836804
 20
30.111512586805553
 30
0.0
 10
127.4964382595486
 20
30.180414496527774
 30
0.0
 10
129.24620225694443
 20
28.432717556423608
 30
0.0
 10
129.22553168402777
 20
26.509665256076385
 30
0.0
  0
LINE
  5
7C
100
AcDbEntity
  8
0
 62
     7
100
AcDbLine
 10
129.225532
 20
26.509665
 30
0.0
 11
129.141127
 21
26.509665
 31
0.0
  0
LINE
  5
7B
100
AcDbEntity
  8
0
 62
     7
100
AcDbLine
 10
121.880244
 20
26.509665
 30
0.0
 11
121.739339
 21
26.509665
 31
0.0
  0
SPLINE
  5
7A
100
AcDbEntity
  8
0
 62
     7
100
AcDbSpline
210
0.0
220
0.0
230
1.0
 70
     8
 71
     3
 72
    14
 73
    10
 74
     0
 42
0.00000001
 43
0.00000001
 40
0.0
 40
0.0
 40
0.0
 40
0.0
 40
1.0
 40
1.0
 40
1.0
 40
2.0
 40
2.0
 40
2.0
 40
3.0
 40
3.0
 40
3.0
 40
3.0
 10
129.14112684461804
 20
26.509665256076385
 30
0.0
 10
129.10529785156248
 20
25.363137478298608
 30
0.0
 10
128.90927191840277
 20
25.072715928819441
 30
0.0
 10
128.26848415798611
 20
24.173890516493053
 30
0.0
 10
127.64147677951388
 20
23.433539496527775
 30
0.0
 10
126.64963378906249
 20
22.983265516493052
 30
0.0
 10
125.67880588107637
 20
22.963283962673611
 30
0.0
 10
123.63862033420138
 20
22.776559787326388
 30
0.0
 10
121.76965603298611
 20
24.576622178819441
 30
0.0
 10
121.88024359809026
 20
26.509665256076385
 30
0.0
  0
SPLINE
  5
79
100
AcDbEntity
  8
0
 62
     7
100
AcDbSpline
210
0.0
220
0.0
230
1.0
 70
     8
 71
     3
 72
     8
 73
     4
 74
     0
 42
0.00000001
 43
0.00000001
 40
0.0
 40
0.0
 40
0.0
 40
0.0
 40
1.0
 40
1.0
 40
1.0
 40
1.0
 10
129.22553168402777
 20
26.509665256076385
 30
0.0
 10
129.0157253689236
 20
21.677574327256941
 30
0.0
 10
122.03837348090276
 20
21.712025282118052
 30
0.0
 10
121.73933919270833
 20
26.509665256076385
 30
0.0
  0
POLYLINE
  5
74
100
AcDbEntity
  8
0
 62
     7
100
AcDb2dPolyline
 66
     1
 10
0.0
 20
0.0
 30
0.0
  0
VERTEX
  5
75
100
AcDbEntity
  8
0
 62
     7
100
AcDbVertex
100
AcDb2dVertex
 10
121.739339
 20
26.509665
 30
0.0
  0
VERTEX
  5
76
100
AcDbEntity
  8
0
 62
     7
100
AcDbVertex
100
AcDb2dVertex
 10
121.880244
 20
26.509665
 30
0.0
  0
VERTEX
  5
77
100
AcDbEntity
  8
0
 62
     7
100
AcDbVertex
100
AcDb2dVertex
 10
121.880244
 20
26.509665
 30
0.0
  0
SEQEND
  5
78
100
AcDbEntity
  8
0
 62
     7
  0
LINE
  5
73
100
AcDbEntity
  8
0
 62
     7
100
AcDbLine
 10
129.141127
 20
26.509665
 30
0.0
 11
129.225532
 21
26.509665
 31
0.0
  0
LINE
  5
72
100
AcDbEntity
  8
0
 62
   250
100
AcDbLine
 10
122.752542
 20
26.959595
 30
0.0
 11
122.752542
 21
26.059391
 31
0.0
  0
LINE
  5
71
100
AcDbEntity
  8
0
 62
   250
100
AcDbLine
 10
122.752542
 20
26.959595
 30
0.0
 11
123.343376
 21
26.959595
 31
0.0
  0
LINE
  5
70
100
AcDbEntity
  8
0
 62
   250
100
AcDbLine
 10
122.752542
 20
26.059391
 30
0.0
 11
123.343376
 21
26.059391
 31
0.0
  0
LINE
  5
6F
100
AcDbEntity
  8
0
 62
   250
100
AcDbLine
 10
128.156519
 20
26.959595
 30
0.0
 11
128.156519
 21
26.059391
 31
0.0
  0
LINE
  5
6E
100
AcDbEntity
  8
0
 62
   250
100
AcDbLine
 10
128.156519
 20
26.959595
 30
0.0
 11
127.53709
 21
26.959595
 31
0.0
  0
LINE
  5
6D
100
AcDbEntity
  8
0
 62
   250
100
AcDbLine
 10
128.156519
 20
26.059391
 30
0.0
 11
127.53709
 21
26.059391
 31
0.0
  0
SPLINE
  5
6C
100
AcDbEntity
  8
0
 62
   250
100
AcDbSpline
210
0.0
220
0.0
230
1.0
 70
     8
 71
     3
 72
    23
 73
    19
 74
     0
 42
0.00000001
 43
0.00000001
 40
0.0
 40
0.0
 40
0.0
 40
0.0
 40
1.0
 40
1.0
 40
1.0
 40
2.0
 40
2.0
 40
2.0
 40
3.0
 40
3.0
 40
3.0
 40
4.0
 40
4.0
 40
4.0
 40
5.0
 40
5.0
 40
5.0
 40
6.0
 40
6.0
 40
6.0
 40
6.0
 10
127.62183973524304
 20
26.509665256076385
 30
0.0
 10
127.62183973524304
 20
27.212464735243053
 30
0.0
 10
127.14262695312499
 20
27.916986762152774
 30
0.0
 10
126.46738823784722
 20
28.310761176215276
 30
0.0
 10
125.87655436197916
 20
28.619786241319442
 30
0.0
 10
125.00391167534721
 20
28.619786241319442
 30
0.0
 10
124.35623372395833
 20
28.310761176215276
 30
0.0
 10
123.68133951822915
 20
27.916986762152774
 30
0.0
 10
123.28687608506944
 20
27.212464735243053
 30
0.0
 10
123.28687608506944
 20
26.509665256076385
 30
0.0
 10
123.28687608506944
 20
25.721427408854165
 30
0.0
 10
123.68133951822915
 20
25.074093967013887
 30
0.0
 10
124.35623372395833
 20
24.708224826388886
 30
0.0
 10
125.00391167534721
 20
24.314794921874999
 30
0.0
 10
125.87655436197916
 20
24.314794921874999
 30
0.0
 10
126.46738823784722
 20
24.708224826388886
 30
0.0
 10
127.14262695312499
 20
25.074093967013887
 30
0.0
 10
127.62183973524304
 20
25.721427408854165
 30
0.0
 10
127.62183973524304
 20
26.509665256076385
 30
0.0
  0
SPLINE
  5
6B
100
AcDbEntity
  8
0
 62
   250
100
AcDbSpline
210
0.0
220
0.0
230
1.0
 70
     8
 71
     3
 72
    23
 73
    19
 74
     0
 42
0.00000001
 43
0.00000001
 40
0.0
 40
0.0
 40
0.0
 40
0.0
 40
1.0
 40
1.0
 40
1.0
 40
2.0
 40
2.0
 40
2.0
 40
3.0
 40
3.0
 40
3.0
 40
4.0
 40
4.0
 40
4.0
 40
5.0
 40
5.0
 40
5.0
 40
6.0
 40
6.0
 40
6.0
 40
6.0
 10
125.42662489149305
 20
29.408024088541666
 30
0.0
 10
124.35623372395833
 20
29.408024088541666
 30
0.0
 10
123.42778049045138
 20
28.81753472222222
 30
0.0
 10
122.89344618055554
 20
27.916986762152774
 30
0.0
 10
122.35876736111111
 20
27.016094292534721
 30
0.0
 10
122.35876736111111
 20
25.91848687065972
 30
0.0
 10
122.89344618055554
 20
25.017594401041663
 30
0.0
 10
123.42778049045138
 20
24.173890516493053
 30
0.0
 10
124.35623372395833
 20
23.611306423611108
 30
0.0
 10
125.42662489149305
 20
23.611306423611108
 30
0.0
 10
126.46738823784722
 20
23.611306423611108
 30
0.0
 10
127.48024631076387
 20
24.173890516493053
 30
0.0
 10
128.01526963975692
 20
25.017594401041663
 30
0.0
 10
128.54994845920137
 20
25.91848687065972
 30
0.0
 10
128.54994845920137
 20
27.016094292534721
 30
0.0
 10
128.01526963975692
 20
27.916986762152774
 30
0.0
 10
127.48024631076387
 20
28.81753472222222
 30
0.0
 10
126.46738823784722
 20
29.408024088541666
 30
0.0
 10
125.42662489149305
 20
29.408024088541666
 30
0.0
  0
SPLINE
  5
6A
100
AcDbEntity
  8
0
 62
   250
100
AcDbSpline
210
0.0
220
0.0
230
1.0
 70
     8
 71
     3
 72
    23
 73
    19
 74
     0
 42
0.00000001
 43
0.00000001
 40
0.0
 40
0.0
 40
0.0
 40
0.0
 40
1.0
 40
1.0
 40
1.0
 40
2.0
 40
2.0
 40
2.0
 40
3.0
 40
3.0
 40
3.0
 40
4.0
 40
4.0
 40
4.0
 40
5.0
 40
5.0
 40
5.0
 40
6.0
 40
6.0
 40
6.0
 40
6.0
 10
127.33934190538193
 20
26.509665256076385
 30
0.0
 10
127.33934190538193
 20
27.157343207465274
 30
0.0
 10
127.00172254774304
 20
27.720271809895831
 30
0.0
 10
126.41088867187499
 20
28.11335720486111
 30
0.0
 10
125.82005479600693
 20
28.423071289062499
 30
0.0
 10
125.08831651475694
 20
28.423071289062499
 30
0.0
 10
124.46888834635415
 20
28.11335720486111
 30
0.0
 10
123.87839898003472
 20
27.720271809895831
 30
0.0
 10
123.54077962239582
 20
27.157343207465274
 30
0.0
 10
123.54077962239582
 20
26.509665256076385
 30
0.0
 10
123.54077962239582
 20
25.862331814236107
 30
0.0
 10
123.87839898003472
 20
25.214998372395829
 30
0.0
 10
124.46888834635415
 20
24.877379014756944
 30
0.0
 10
125.08831651475694
 20
24.567664930555555
 30
0.0
 10
125.82005479600693
 20
24.567664930555555
 30
0.0
 10
126.41088867187499
 20
24.877379014756944
 30
0.0
 10
127.00172254774304
 20
25.214998372395829
 30
0.0
 10
127.33934190538193
 20
25.862331814236107
 30
0.0
 10
127.33934190538193
 20
26.509665256076385
 30
0.0
  0
SPLINE
  5
69
100
AcDbEntity
  8
0
 62
   250
100
AcDbSpline
210
0.0
220
0.0
230
1.0
 70
     8
 71
     3
 72
    23
 73
    19
 74
     0
 42
0.00000001
 43
0.00000001
 40
0.0
 40
0.0
 40
0.0
 40
0.0
 40
1.0
 40
1.0
 40
1.0
 40
2.0
 40
2.0
 40
2.0
 40
3.0
 40
3.0
 40
3.0
 40
4.0
 40
4.0
 40
4.0
 40
5.0
 40
5.0
 40
5.0
 40
6.0
 40
6.0
 40
6.0
 40
6.0
 10
126.41088867187499
 20
26.509665256076385
 30
0.0
 10
126.41088867187499
 20
26.819379340277774
 30
0.0
 10
126.21348470052082
 20
27.157343207465274
 30
0.0
 10
125.93236490885415
 20
27.269653320312496
 30
0.0
 10
125.62333984374999
 20
27.466712782118051
 30
0.0
 10
125.28537597656249
 20
27.466712782118051
 30
0.0
 10
124.94775661892361
 20
27.269653320312496
 30
0.0
 10
124.66594780815971
 20
27.157343207465274
 30
0.0
 10
124.46888834635415
 20
26.819379340277774
 30
0.0
 10
124.46888834635415
 20
26.509665256076385
 30
0.0
 10
124.46888834635415
 20
26.171701388888888
 30
0.0
 10
124.66594780815971
 20
25.862331814236107
 30
0.0
 10
124.94775661892361
 20
25.665272352430552
 30
0.0
 10
125.28537597656249
 20
25.525056966145829
 30
0.0
 10
125.62333984374999
 20
25.525056966145829
 30
0.0
 10
125.93236490885415
 20
25.665272352430552
 30
0.0
 10
126.21348470052082
 20
25.862331814236107
 30
0.0
 10
126.41088867187499
 20
26.171701388888888
 30
0.0
 10
126.41088867187499
 20
26.509665256076385
 30
0.0
  0
SPLINE
  5
68
100
AcDbEntity
  8
0
 62
   250
100
AcDbSpline
210
0.0
220
0.0
230
1.0
 70
     8
 71
     3
 72
    23
 73
    19
 74
     0
 42
0.00000001
 43
0.00000001
 40
0.0
 40
0.0
 40
0.0
 40
0.0
 40
1.0
 40
1.0
 40
1.0
 40
2.0
 40
2.0
 40
2.0
 40
3.0
 40
3.0
 40
3.0
 40
4.0
 40
4.0
 40
4.0
 40
5.0
 40
5.0
 40
5.0
 40
6.0
 40
6.0
 40
6.0
 40
6.0
 10
125.82005479600693
 20
26.509665256076385
 30
0.0
 10
125.82005479600693
 20
26.622319878472219
 30
0.0
 10
125.7353054470486
 20
26.706724717881944
 30
0.0
 10
125.62333984374999
 20
26.76219075520833
 30
0.0
 10
125.48243543836804
 20
26.819379340277774
 30
0.0
 10
125.34187554253471
 20
26.819379340277774
 30
0.0
 10
125.28537597656249
 20
26.76219075520833
 30
0.0
 10
125.14447157118055
 20
26.706724717881944
 30
0.0
 10
125.08831651475694
 20
26.622319878472219
 30
0.0
 10
125.08831651475694
 20
26.509665256076385
 30
0.0
 10
125.08831651475694
 20
26.368416341145831
 30
0.0
 10
125.14447157118055
 20
26.256795247395832
 30
0.0
 10
125.28537597656249
 20
26.171701388888888
 30
0.0
 10
125.34187554253471
 20
26.115546332465275
 30
0.0
 10
125.48243543836804
 20
26.115546332465275
 30
0.0
 10
125.62333984374999
 20
26.171701388888888
 30
0.0
 10
125.7353054470486
 20
26.256795247395832
 30
0.0
 10
125.82005479600693
 20
26.368416341145831
 30
0.0
 10
125.82005479600693
 20
26.509665256076385
 30
0.0
  0
SPLINE
  5
67
100
AcDbEntity
  8
0
 62
     7
100
AcDbSpline
210
0.0
220
0.0
230
1.0
 70
     8
 71
     3
 72
    11
 73
     7
 74
     0
 42
0.00000001
 43
0.00000001
 40
0.0
 40
0.0
 40
0.0
 40
0.0
 40
1.0
 40
1.0
 40
1.0
 40
2.0
 40
2.0
 40
2.0
 40
2.0
 10
115.68389485677082
 20
26.480037434895831
 30
0.0
 10
115.65702311197916
 20
28.465790473090276
 30
0.0
 10
114.22868652343749
 20
29.792152235243051
 30
0.0
 10
112.22226291232639
 20
30.026074218749997
 30
0.0
 10
110.14969346788193
 20
30.03985460069444
 30
0.0
 10
108.36341145833332
 20
28.51643337673611
 30
0.0
 10
108.42370062934027
 20
26.480037434895831
 30
0.0
  0
SPLINE
  5
66
100
AcDbEntity
  8
0
 62
     7
100
AcDbSpline
210
0.0
220
0.0
230
1.0
 70
     8
 71
     3
 72
    11
 73
     7
 74
     0
 42
0.00000001
 43
0.00000001
 40
0.0
 40
0.0
 40
0.0
 40
0.0
 40
1.0
 40
1.0
 40
1.0
 40
2.0
 40
2.0
 40
2.0
 40
2.0
 10
108.28245171440972
 20
26.480037434895831
 30
0.0
 10
108.3379177517361
 20
28.369327799479166
 30
0.0
 10
110.02256944444443
 20
30.11736924913194
 30
0.0
 10
112.02589246961804
 20
30.082573784722218
 30
0.0
 10
114.03955078124999
 20
30.151131184895831
 30
0.0
 10
115.78931477864582
 20
28.403089735243054
 30
0.0
 10
115.76864420572916
 20
26.480037434895831
 30
0.0
  0
LINE
  5
65
100
AcDbEntity
  8
0
 62
     7
100
AcDbLine
 10
115.768644
 20
26.480037
 30
0.0
 11
115.683895
 21
26.480037
 31
0.0
  0
LINE
  5
64
100
AcDbEntity
  8
0
 62
     7
100
AcDbLine
 10
108.423701
 20
26.480037
 30
0.0
 11
108.282452
 21
26.480037
 31
0.0
  0
SPLINE
  5
63
100
AcDbEntity
  8
0
 62
     7
100
AcDbSpline
210
0.0
220
0.0
230
1.0
 70
     8
 71
     3
 72
    14
 73
    10
 74
     0
 42
0.00000001
 43
0.00000001
 40
0.0
 40
0.0
 40
0.0
 40
0.0
 40
1.0
 40
1.0
 40
1.0
 40
2.0
 40
2.0
 40
2.0
 40
3.0
 40
3.0
 40
3.0
 40
3.0
 10
115.68389485677082
 20
26.480037434895831
 30
0.0
 10
115.64806586371527
 20
25.333854166666665
 30
0.0
 10
115.45272894965277
 20
25.044121636284721
 30
0.0
 10
114.81159667968748
 20
24.14460720486111
 30
0.0
 10
114.18458930121527
 20
23.404945203993055
 30
0.0
 10
113.1934353298611
 20
22.953637695312498
 30
0.0
 10
112.22226291232639
 20
22.934345160590276
 30
0.0
 10
110.18207736545138
 20
22.747276475694441
 30
0.0
 10
108.31276855468749
 20
24.54768337673611
 30
0.0
 10
108.42370062934027
 20
26.480037434895831
 30
0.0
  0
SPLINE
  5
62
100
AcDbEntity
  8
0
 62
     7
100
AcDbSpline
210
0.0
220
0.0
230
1.0
 70
     8
 71
     3
 72
     8
 73
     4
 74
     0
 42
0.00000001
 43
0.00000001
 40
0.0
 40
0.0
 40
0.0
 40
0.0
 40
1.0
 40
1.0
 40
1.0
 40
1.0
 10
115.76864420572916
 20
26.480037434895831
 30
0.0
 10
115.55883789062499
 20
21.64863552517361
 30
0.0
 10
108.58114149305554
 20
21.682741970486109
 30
0.0
 10
108.28245171440972
 20
26.480037434895831
 30
0.0
  0
POLYLINE
  5
5D
100
AcDbEntity
  8
0
 62
     7
100
AcDb2dPolyline
 66
     1
 10
0.0
 20
0.0
 30
0.0
  0
VERTEX
  5
5E
100
AcDbEntity
  8
0
 62
     7
100
AcDbVertex
100
AcDb2dVertex
 10
108.282452
 20
26.480037
 30
0.0
  0
VERTEX
  5
5F
100
AcDbEntity
  8
0
 62
     7
100
AcDbVertex
100
AcDb2dVertex
 10
108.423701
 20
26.480037
 30
0.0
  0
VERTEX
  5
60
100
AcDbEntity
  8
0
 62
     7
100
AcDbVertex
100
AcDb2dVertex
 10
108.423701
 20
26.480037
 30
0.0
  0
SEQEND
  5
61
100
AcDbEntity
  8
0
 62
     7
  0
LINE
  5
5C
100
AcDbEntity
  8
0
 62
     7
100
AcDbLine
 10
115.683895
 20
26.480037
 30
0.0
 11
115.768644
 21
26.480037
 31
0.0
  0
LINE
  5
5B
100
AcDbEntity
  8
0
 62
   250
100
AcDbLine
 10
109.295654
 20
26.930311
 30
0.0
 11
109.295654
 21
26.031141
 31
0.0
  0
LINE
  5
5A
100
AcDbEntity
  8
0
 62
   250
100
AcDbLine
 10
109.295654
 20
26.930311
 30
0.0
 11
109.886488
 21
26.930311
 31
0.0
  0
LINE
  5
59
100
AcDbEntity
  8
0
 62
   250
100
AcDbLine
 10
109.295654
 20
26.031141
 30
0.0
 11
109.886488
 21
26.031141
 31
0.0
  0
LINE
  5
58
100
AcDbEntity
  8
0
 62
   250
100
AcDbLine
 10
114.699631
 20
26.930311
 30
0.0
 11
114.699631
 21
26.031141
 31
0.0
  0
LINE
  5
57
100
AcDbEntity
  8
0
 62
   250
100
AcDbLine
 10
114.699631
 20
26.930311
 30
0.0
 11
114.080203
 21
26.930311
 31
0.0
  0
LINE
  5
56
100
AcDbEntity
  8
0
 62
   250
100
AcDbLine
 10
114.699631
 20
26.031141
 30
0.0
 11
114.080203
 21
26.031141
 31
0.0
  0
SPLINE
  5
55
100
AcDbEntity
  8
0
 62
   250
100
AcDbSpline
210
0.0
220
0.0
230
1.0
 70
     8
 71
     3
 72
    23
 73
    19
 74
     0
 42
0.00000001
 43
0.00000001
 40
0.0
 40
0.0
 40
0.0
 40
0.0
 40
1.0
 40
1.0
 40
1.0
 40
2.0
 40
2.0
 40
2.0
 40
3.0
 40
3.0
 40
3.0
 40
4.0
 40
4.0
 40
4.0
 40
5.0
 40
5.0
 40
5.0
 40
6.0
 40
6.0
 40
6.0
 40
6.0
 10
114.16460774739582
 20
26.480037434895831
 30
0.0
 10
114.16460774739582
 20
27.18318142361111
 30
0.0
 10
113.68573947482638
 20
27.887703450520831
 30
0.0
 10
113.01118977864583
 20
28.28147786458333
 30
0.0
 10
112.41966688368055
 20
28.590847439236107
 30
0.0
 10
111.54736870659721
 20
28.590847439236107
 30
0.0
 10
110.89969075520833
 20
28.28147786458333
 30
0.0
 10
110.22445203993054
 20
27.887703450520831
 30
0.0
 10
109.82998860677083
 20
27.18318142361111
 30
0.0
 10
109.82998860677083
 20
26.480037434895831
 30
0.0
 10
109.82998860677083
 20
25.692833116319441
 30
0.0
 10
110.22445203993054
 20
25.044466145833329
 30
0.0
 10
110.89969075520833
 20
24.678941514756943
 30
0.0
 10
111.54736870659721
 20
24.285511610243052
 30
0.0
 10
112.41966688368055
 20
24.285511610243052
 30
0.0
 10
113.01118977864583
 20
24.678941514756943
 30
0.0
 10
113.68573947482638
 20
25.044466145833329
 30
0.0
 10
114.16460774739582
 20
25.692833116319441
 30
0.0
 10
114.16460774739582
 20
26.480037434895831
 30
0.0
  0
SPLINE
  5
54
100
AcDbEntity
  8
0
 62
   250
100
AcDbSpline
210
0.0
220
0.0
230
1.0
 70
     8
 71
     3
 72
    23
 73
    19
 74
     0
 42
0.00000001
 43
0.00000001
 40
0.0
 40
0.0
 40
0.0
 40
0.0
 40
1.0
 40
1.0
 40
1.0
 40
2.0
 40
2.0
 40
2.0
 40
3.0
 40
3.0
 40
3.0
 40
4.0
 40
4.0
 40
4.0
 40
5.0
 40
5.0
 40
5.0
 40
6.0
 40
6.0
 40
6.0
 40
6.0
 10
111.96973741319444
 20
29.379085286458331
 30
0.0
 10
110.89969075520833
 20
29.379085286458331
 30
0.0
 10
109.97123752170138
 20
28.788251410590274
 30
0.0
 10
109.43690321180554
 20
27.887703450520831
 30
0.0
 10
108.90187988281249
 20
26.987155490451386
 30
0.0
 10
108.90187988281249
 20
25.888859049479166
 30
0.0
 10
109.43690321180554
 20
24.988655598958331
 30
0.0
 10
109.97123752170138
 20
24.14460720486111
 30
0.0
 10
110.89969075520833
 20
23.582023111979165
 30
0.0
 10
111.96973741319444
 20
23.582023111979165
 30
0.0
 10
113.01118977864583
 20
23.582023111979165
 30
0.0
 10
114.02404785156249
 20
24.14460720486111
 30
0.0
 10
114.55872667100694
 20
24.988655598958331
 30
0.0
 10
115.09306098090276
 20
25.888859049479166
 30
0.0
 10
115.09306098090276
 20
26.987155490451386
 30
0.0
 10
114.55872667100694
 20
27.887703450520831
 30
0.0
 10
114.02404785156249
 20
28.788251410590274
 30
0.0
 10
113.01118977864583
 20
29.379085286458331
 30
0.0
 10
111.96973741319444
 20
29.379085286458331
 30
0.0
  0
SPLINE
  5
53
100
AcDbEntity
  8
0
 62
   250
100
AcDbSpline
210
0.0
220
0.0
230
1.0
 70
     8
 71
     3
 72
    23
 73
    19
 74
     0
 42
0.00000001
 43
0.00000001
 40
0.0
 40
0.0
 40
0.0
 40
0.0
 40
1.0
 40
1.0
 40
1.0
 40
2.0
 40
2.0
 40
2.0
 40
3.0
 40
3.0
 40
3.0
 40
4.0
 40
4.0
 40
4.0
 40
5.0
 40
5.0
 40
5.0
 40
6.0
 40
6.0
 40
6.0
 40
6.0
 10
113.88279893663193
 20
26.480037434895831
 30
0.0
 10
113.88279893663193
 20
27.12771538628472
 30
0.0
 10
113.54517957899304
 20
27.690988498263888
 30
0.0
 10
112.95400119357637
 20
28.084418402777775
 30
0.0
 10
112.36351182725693
 20
28.393787977430552
 30
0.0
 10
111.63108452690972
 20
28.393787977430552
 30
0.0
 10
111.01234537760416
 20
28.084418402777775
 30
0.0
 10
110.42185601128472
 20
27.690988498263888
 30
0.0
 10
110.08354763454859
 20
27.12771538628472
 30
0.0
 10
110.08354763454859
 20
26.480037434895831
 30
0.0
 10
110.08354763454859
 20
25.832703993055553
 30
0.0
 10
110.42185601128472
 20
25.186059570312498
 30
0.0
 10
111.01234537760416
 20
24.847751193576386
 30
0.0
 10
111.63108452690972
 20
24.538381618923609
 30
0.0
 10
112.36351182725693
 20
24.538381618923609
 30
0.0
 10
112.95400119357637
 20
24.847751193576386
 30
0.0
 10
113.54517957899304
 20
25.186059570312498
 30
0.0
 10
113.88279893663193
 20
25.832703993055553
 30
0.0
 10
113.88279893663193
 20
26.480037434895831
 30
0.0
  0
SPLINE
  5
52
100
AcDbEntity
  8
0
 62
   250
100
AcDbSpline
210
0.0
220
0.0
230
1.0
 70
     8
 71
     3
 72
    23
 73
    19
 74
     0
 42
0.00000001
 43
0.00000001
 40
0.0
 40
0.0
 40
0.0
 40
0.0
 40
1.0
 40
1.0
 40
1.0
 40
2.0
 40
2.0
 40
2.0
 40
3.0
 40
3.0
 40
3.0
 40
4.0
 40
4.0
 40
4.0
 40
5.0
 40
5.0
 40
5.0
 40
6.0
 40
6.0
 40
6.0
 40
6.0
 10
112.95400119357637
 20
26.480037434895831
 30
0.0
 10
112.95400119357637
 20
26.790096028645831
 30
0.0
 10
112.75728624131943
 20
27.12771538628472
 30
0.0
 10
112.47547743055554
 20
27.240714518229165
 30
0.0
 10
112.16610785590277
 20
27.437084960937497
 30
0.0
 10
111.82848849826388
 20
27.437084960937497
 30
0.0
 10
111.49121365017361
 20
27.240714518229165
 30
0.0
 10
111.20940483940971
 20
27.12771538628472
 30
0.0
 10
111.01234537760416
 20
26.790096028645831
 30
0.0
 10
111.01234537760416
 20
26.480037434895831
 30
0.0
 10
111.01234537760416
 20
26.142762586805553
 30
0.0
 10
111.20940483940971
 20
25.832703993055553
 30
0.0
 10
111.49121365017361
 20
25.636333550347221
 30
0.0
 10
111.82848849826388
 20
25.495773654513886
 30
0.0
 10
112.16610785590277
 20
25.495773654513886
 30
0.0
 10
112.47547743055554
 20
25.636333550347221
 30
0.0
 10
112.75728624131943
 20
25.832703993055553
 30
0.0
 10
112.95400119357637
 20
26.142762586805553
 30
0.0
 10
112.95400119357637
 20
26.480037434895831
 30
0.0
  0
SPLINE
  5
51
100
AcDbEntity
  8
0
 62
   250
100
AcDbSpline
210
0.0
220
0.0
230
1.0
 70
     8
 71
     3
 72
    23
 73
    19
 74
     0
 42
0.00000001
 43
0.00000001
 40
0.0
 40
0.0
 40
0.0
 40
0.0
 40
1.0
 40
1.0
 40
1.0
 40
2.0
 40
2.0
 40
2.0
 40
3.0
 40
3.0
 40
3.0
 40
4.0
 40
4.0
 40
4.0
 40
5.0
 40
5.0
 40
5.0
 40
6.0
 40
6.0
 40
6.0
 40
6.0
 10
112.36351182725693
 20
26.480037434895831
 30
0.0
 10
112.36351182725693
 20
26.593381076388887
 30
0.0
 10
112.2787624782986
 20
26.677785915798609
 30
0.0
 10
112.16610785590277
 20
26.733251953124999
 30
0.0
 10
112.02589246961804
 20
26.790096028645831
 30
0.0
 10
111.8849880642361
 20
26.790096028645831
 30
0.0
 10
111.82848849826388
 20
26.733251953124999
 30
0.0
 10
111.68758409288193
 20
26.677785915798609
 30
0.0
 10
111.63108452690972
 20
26.593381076388887
 30
0.0
 10
111.63108452690972
 20
26.480037434895831
 30
0.0
 10
111.63108452690972
 20
26.339477539062496
 30
0.0
 10
111.68758409288193
 20
26.227167426215274
 30
0.0
 10
111.82848849826388
 20
26.142762586805553
 30
0.0
 10
111.8849880642361
 20
26.086263020833332
 30
0.0
 10
112.02589246961804
 20
26.086263020833332
 30
0.0
 10
112.16610785590277
 20
26.142762586805553
 30
0.0
 10
112.2787624782986
 20
26.227167426215274
 30
0.0
 10
112.36351182725693
 20
26.339477539062496
 30
0.0
 10
112.36351182725693
 20
26.480037434895831
 30
0.0
  0
SPLINE
  5
50
100
AcDbEntity
  8
0
 62
     7
100
AcDbSpline
210
0.0
220
0.0
230
1.0
 70
     8
 71
     3
 72
    11
 73
     7
 74
     0
 42
0.00000001
 43
0.00000001
 40
0.0
 40
0.0
 40
0.0
 40
0.0
 40
1.0
 40
1.0
 40
1.0
 40
2.0
 40
2.0
 40
2.0
 40
2.0
 10
101.81015082465277
 20
26.509665256076385
 30
0.0
 10
101.7832790798611
 20
28.495073784722219
 30
0.0
 10
100.35528700086805
 20
29.821435546874998
 30
0.0
 10
98.34817437065972
 20
30.056046549479163
 30
0.0
 10
96.275260416666654
 20
30.068793402777775
 30
0.0
 10
94.489322916666652
 20
28.545372178819441
 30
0.0
 10
94.54995659722222
 20
26.509665256076385
 30
0.0
  0
SPLINE
  5
4F
100
AcDbEntity
  8
0
 62
     7
100
AcDbSpline
210
0.0
220
0.0
230
1.0
 70
     8
 71
     3
 72
    11
 73
     7
 74
     0
 42
0.00000001
 43
0.00000001
 40
0.0
 40
0.0
 40
0.0
 40
0.0
 40
1.0
 40
1.0
 40
1.0
 40
2.0
 40
2.0
 40
2.0
 40
2.0
 10
94.408879937065961
 20
26.509665256076385
 30
0.0
 10
94.463312445746524
 20
28.398266601562497
 30
0.0
 10
96.148136393229152
 20
30.146652560763886
 30
0.0
 10
98.151803927951377
 20
30.111512586805553
 30
0.0
 10
100.16528998480902
 20
30.180414496527774
 30
0.0
 10
101.91505398220485
 20
28.432717556423608
 30
0.0
 10
101.89455566406249
 20
26.509665256076385
 30
0.0
  0
LINE
  5
4E
100
AcDbEntity
  8
0
 62
     7
100
AcDbLine
 10
101.894556
 20
26.509665
 30
0.0
 11
101.810151
 21
26.509665
 31
0.0
  0
LINE
  5
4D
100
AcDbEntity
  8
0
 62
     7
100
AcDbLine
 10
94.549957
 20
26.509665
 30
0.0
 11
94.40888
 21
26.509665
 31
0.0
  0
SPLINE
  5
4C
100
AcDbEntity
  8
0
 62
     7
100
AcDbSpline
210
0.0
220
0.0
230
1.0
 70
     8
 71
     3
 72
    14
 73
    10
 74
     0
 42
0.00000001
 43
0.00000001
 40
0.0
 40
0.0
 40
0.0
 40
0.0
 40
1.0
 40
1.0
 40
1.0
 40
2.0
 40
2.0
 40
2.0
 40
3.0
 40
3.0
 40
3.0
 40
3.0
 10
101.81015082465277
 20
26.509665256076385
 30
0.0
 10
101.77466634114582
 20
25.363137478298608
 30
0.0
 10
101.57829589843749
 20
25.072715928819441
 30
0.0
 10
100.93733588324652
 20
24.173890516493053
 30
0.0
 10
100.3105007595486
 20
23.433539496527775
 30
0.0
 10
99.319002278645826
 20
22.983265516493052
 30
0.0
 10
98.34817437065972
 20
22.963283962673611
 30
0.0
 10
96.307816569010413
 20
22.776559787326388
 30
0.0
 10
94.438680013020829
 20
24.576622178819441
 30
0.0
 10
94.54995659722222
 20
26.509665256076385
 30
0.0
  0
SPLINE
  5
4B
100
AcDbEntity
  8
0
 62
     7
100
AcDbSpline
210
0.0
220
0.0
230
1.0
 70
     8
 71
     3
 72
     8
 73
     4
 74
     0
 42
0.00000001
 43
0.00000001
 40
0.0
 40
0.0
 40
0.0
 40
0.0
 40
1.0
 40
1.0
 40
1.0
 40
1.0
 10
101.89455566406249
 20
26.509665256076385
 30
0.0
 10
101.68509385850693
 20
21.677574327256941
 30
0.0
 10
94.707397460937486
 20
21.712025282118052
 30
0.0
 10
94.408879937065961
 20
26.509665256076385
 30
0.0
  0
POLYLINE
  5
46
100
AcDbEntity
  8
0
 62
     7
100
AcDb2dPolyline
 66
     1
 10
0.0
 20
0.0
 30
0.0
  0
VERTEX
  5
47
100
AcDbEntity
  8
0
 62
     7
100
AcDbVertex
100
AcDb2dVertex
 10
94.40888
 20
26.509665
 30
0.0
  0
VERTEX
  5
48
100
AcDbEntity
  8
0
 62
     7
100
AcDbVertex
100
AcDb2dVertex
 10
94.549957
 20
26.509665
 30
0.0
  0
VERTEX
  5
49
100
AcDbEntity
  8
0
 62
     7
100
AcDbVertex
100
AcDb2dVertex
 10
94.549957
 20
26.509665
 30
0.0
  0
SEQEND
  5
4A
100
AcDbEntity
  8
0
 62
     7
  0
LINE
  5
45
100
AcDbEntity
  8
0
 62
     7
100
AcDbLine
 10
101.810151
 20
26.509665
 30
0.0
 11
101.894556
 21
26.509665
 31
0.0
  0
LINE
  5
44
100
AcDbEntity
  8
0
 62
   250
100
AcDbLine
 10
95.42191
 20
26.959595
 30
0.0
 11
95.42191
 21
26.059391
 31
0.0
  0
LINE
  5
43
100
AcDbEntity
  8
0
 62
   250
100
AcDbLine
 10
95.42191
 20
26.959595
 30
0.0
 11
96.012916
 21
26.959595
 31
0.0
  0
LINE
  5
42
100
AcDbEntity
  8
0
 62
   250
100
AcDbLine
 10
95.42191
 20
26.059391
 30
0.0
 11
96.012916
 21
26.059391
 31
0.0
  0
LINE
  5
41
100
AcDbEntity
  8
0
 62
   250
100
AcDbLine
 10
100.825715
 20
26.959595
 30
0.0
 11
100.825715
 21
26.059391
 31
0.0
  0
LINE
  5
40
100
AcDbEntity
  8
0
 62
   250
100
AcDbLine
 10
100.825715
 20
26.959595
 30
0.0
 11
100.206287
 21
26.959595
 31
0.0
  0
LINE
  5
3F
100
AcDbEntity
  8
0
 62
   250
100
AcDbLine
 10
100.825715
 20
26.059391
 30
0.0
 11
100.206287
 21
26.059391
 31
0.0
  0
SPLINE
  5
3E
100
AcDbEntity
  8
0
 62
   250
100
AcDbSpline
210
0.0
220
0.0
230
1.0
 70
     8
 71
     3
 72
    23
 73
    19
 74
     0
 42
0.00000001
 43
0.00000001
 40
0.0
 40
0.0
 40
0.0
 40
0.0
 40
1.0
 40
1.0
 40
1.0
 40
2.0
 40
2.0
 40
2.0
 40
3.0
 40
3.0
 40
3.0
 40
4.0
 40
4.0
 40
4.0
 40
5.0
 40
5.0
 40
5.0
 40
6.0
 40
6.0
 40
6.0
 40
6.0
 10
100.29069146050347
 20
26.509665256076385
 30
0.0
 10
100.29069146050347
 20
27.212464735243053
 30
0.0
 10
99.812167697482636
 20
27.916986762152774
 30
0.0
 10
99.13692898220485
 20
28.310761176215276
 30
0.0
 10
98.545578342013883
 20
28.619786241319442
 30
0.0
 10
97.673280164930546
 20
28.619786241319442
 30
0.0
 10
97.02560221354166
 20
28.310761176215276
 30
0.0
 10
96.351052517361097
 20
27.916986762152774
 30
0.0
 10
95.955727810329847
 20
27.212464735243053
 30
0.0
 10
95.955727810329847
 20
26.509665256076385
 30
0.0
 10
95.955727810329847
 20
25.721427408854165
 30
0.0
 10
96.351052517361097
 20
25.074093967013887
 30
0.0
 10
97.02560221354166
 20
24.708224826388886
 30
0.0
 10
97.673280164930546
 20
24.314794921874999
 30
0.0
 10
98.545578342013883
 20
24.314794921874999
 30
0.0
 10
99.13692898220485
 20
24.708224826388886
 30
0.0
 10
99.812167697482636
 20
25.074093967013887
 30
0.0
 10
100.29069146050347
 20
25.721427408854165
 30
0.0
 10
100.29069146050347
 20
26.509665256076385
 30
0.0
  0
SPLINE
  5
3D
100
AcDbEntity
  8
0
 62
   250
100
AcDbSpline
210
0.0
220
0.0
230
1.0
 70
     8
 71
     3
 72
    23
 73
    19
 74
     0
 42
0.00000001
 43
0.00000001
 40
0.0
 40
0.0
 40
0.0
 40
0.0
 40
1.0
 40
1.0
 40
1.0
 40
2.0
 40
2.0
 40
2.0
 40
3.0
 40
3.0
 40
3.0
 40
4.0
 40
4.0
 40
4.0
 40
5.0
 40
5.0
 40
5.0
 40
6.0
 40
6.0
 40
6.0
 40
6.0
 10
98.095648871527771
 20
29.408024088541666
 30
0.0
 10
97.02560221354166
 20
29.408024088541666
 30
0.0
 10
96.097148980034717
 20
28.81753472222222
 30
0.0
 10
95.562642415364579
 20
27.916986762152774
 30
0.0
 10
95.027619086371516
 20
27.016094292534721
 30
0.0
 10
95.027619086371516
 20
25.91848687065972
 30
0.0
 10
95.562642415364579
 20
25.017594401041663
 30
0.0
 10
96.097148980034717
 20
24.173890516493053
 30
0.0
 10
97.02560221354166
 20
23.611306423611108
 30
0.0
 10
98.095648871527771
 20
23.611306423611108
 30
0.0
 10
99.13692898220485
 20
23.611306423611108
 30
0.0
 10
100.14961480034721
 20
24.173890516493053
 30
0.0
 10
100.68463812934027
 20
25.017594401041663
 30
0.0
 10
101.21914469401041
 20
25.91848687065972
 30
0.0
 10
101.21914469401041
 20
27.016094292534721
 30
0.0
 10
100.68463812934027
 20
27.916986762152774
 30
0.0
 10
100.14961480034721
 20
28.81753472222222
 30
0.0
 10
99.13692898220485
 20
29.408024088541666
 30
0.0
 10
98.095648871527771
 20
29.408024088541666
 30
0.0
  0
SPLINE
  5
3C
100
AcDbEntity
  8
0
 62
   250
100
AcDbSpline
210
0.0
220
0.0
230
1.0
 70
     8
 71
     3
 72
    23
 73
    19
 74
     0
 42
0.00000001
 43
0.00000001
 40
0.0
 40
0.0
 40
0.0
 40
0.0
 40
1.0
 40
1.0
 40
1.0
 40
2.0
 40
2.0
 40
2.0
 40
3.0
 40
3.0
 40
3.0
 40
4.0
 40
4.0
 40
4.0
 40
5.0
 40
5.0
 40
5.0
 40
6.0
 40
6.0
 40
6.0
 40
6.0
 10
100.00853814019096
 20
26.509665256076385
 30
0.0
 10
100.00853814019096
 20
27.157343207465274
 30
0.0
 10
99.671091037326377
 20
27.720271809895831
 30
0.0
 10
99.07974039713541
 20
28.11335720486111
 30
0.0
 10
98.489251030815964
 20
28.423071289062499
 30
0.0
 10
97.757685004340274
 20
28.423071289062499
 30
0.0
 10
97.138601345486109
 20
28.11335720486111
 30
0.0
 10
96.54742296006944
 20
27.720271809895831
 30
0.0
 10
96.209975857204853
 20
27.157343207465274
 30
0.0
 10
96.209975857204853
 20
26.509665256076385
 30
0.0
 10
96.209975857204853
 20
25.862331814236107
 30
0.0
 10
96.54742296006944
 20
25.214998372395829
 30
0.0
 10
97.138601345486109
 20
24.877379014756944
 30
0.0
 10
97.757685004340274
 20
24.567664930555555
 30
0.0
 10
98.489251030815964
 20
24.567664930555555
 30
0.0
 10
99.07974039713541
 20
24.877379014756944
 30
0.0
 10
99.671091037326377
 20
25.214998372395829
 30
0.0
 10
100.00853814019096
 20
25.862331814236107
 30
0.0
 10
100.00853814019096
 20
26.509665256076385
 30
0.0
  0
SPLINE
  5
3B
100
AcDbEntity
  8
0
 62
   250
100
AcDbSpline
210
0.0
220
0.0
230
1.0
 70
     8
 71
     3
 72
    23
 73
    19
 74
     0
 42
0.00000001
 43
0.00000001
 40
0.0
 40
0.0
 40
0.0
 40
0.0
 40
1.0
 40
1.0
 40
1.0
 40
2.0
 40
2.0
 40
2.0
 40
3.0
 40
3.0
 40
3.0
 40
4.0
 40
4.0
 40
4.0
 40
5.0
 40
5.0
 40
5.0
 40
6.0
 40
6.0
 40
6.0
 40
6.0
 10
99.07974039713541
 20
26.509665256076385
 30
0.0
 10
99.07974039713541
 20
26.819379340277774
 30
0.0
 10
98.88302544487847
 20
27.157343207465274
 30
0.0
 10
98.601905653211801
 20
27.269653320312496
 30
0.0
 10
98.291847059461801
 20
27.466712782118051
 30
0.0
 10
97.954399956597214
 20
27.466712782118051
 30
0.0
 10
97.616780598958329
 20
27.269653320312496
 30
0.0
 10
97.335144042968736
 20
27.157343207465274
 30
0.0
 10
97.138601345486109
 20
26.819379340277774
 30
0.0
 10
97.138601345486109
 20
26.509665256076385
 30
0.0
 10
97.138601345486109
 20
26.171701388888888
 30
0.0
 10
97.335144042968736
 20
25.862331814236107
 30
0.0
 10
97.616780598958329
 20
25.665272352430552
 30
0.0
 10
97.954399956597214
 20
25.525056966145829
 30
0.0
 10
98.291847059461801
 20
25.525056966145829
 30
0.0
 10
98.601905653211801
 20
25.665272352430552
 30
0.0
 10
98.88302544487847
 20
25.862331814236107
 30
0.0
 10
99.07974039713541
 20
26.171701388888888
 30
0.0
 10
99.07974039713541
 20
26.509665256076385
 30
0.0
  0
SPLINE
  5
3A
100
AcDbEntity
  8
0
 62
   250
100
AcDbSpline
210
0.0
220
0.0
230
1.0
 70
     8
 71
     3
 72
    23
 73
    19
 74
     0
 42
0.00000001
 43
0.00000001
 40
0.0
 40
0.0
 40
0.0
 40
0.0
 40
1.0
 40
1.0
 40
1.0
 40
2.0
 40
2.0
 40
2.0
 40
3.0
 40
3.0
 40
3.0
 40
4.0
 40
4.0
 40
4.0
 40
5.0
 40
5.0
 40
5.0
 40
6.0
 40
6.0
 40
6.0
 40
6.0
 10
98.489251030815964
 20
26.509665256076385
 30
0.0
 10
98.489251030815964
 20
26.622319878472219
 30
0.0
 10
98.404329427083326
 20
26.706724717881944
 30
0.0
 10
98.291847059461801
 20
26.76219075520833
 30
0.0
 10
98.151803927951377
 20
26.819379340277774
 30
0.0
 10
98.010727267795133
 20
26.819379340277774
 30
0.0
 10
97.954399956597214
 20
26.76219075520833
 30
0.0
 10
97.814012315538179
 20
26.706724717881944
 30
0.0
 10
97.757685004340274
 20
26.622319878472219
 30
0.0
 10
97.757685004340274
 20
26.509665256076385
 30
0.0
 10
97.757685004340274
 20
26.368416341145831
 30
0.0
 10
97.814012315538179
 20
26.256795247395832
 30
0.0
 10
97.954399956597214
 20
26.171701388888888
 30
0.0
 10
98.010727267795133
 20
26.115546332465275
 30
0.0
 10
98.151803927951377
 20
26.115546332465275
 30
0.0
 10
98.291847059461801
 20
26.171701388888888
 30
0.0
 10
98.404329427083326
 20
26.256795247395832
 30
0.0
 10
98.489251030815964
 20
26.368416341145831
 30
0.0
 10
98.489251030815964
 20
26.509665256076385
 30
0.0
  0
CIRCLE
  5
39
100
AcDbEntity
  8
0
 62
     7
100
AcDbCircle
 10
70.073845
 20
22.830303
 30
0.0
 40
2.683988
  0
CIRCLE
  5
38
100
AcDbEntity
  8
0
 62
     7
100
AcDbCircle
 10
70.02992
 20
22.874056
 30
0.0
 40
3.256046
  0
POLYLINE
  5
32
100
AcDbEntity
  8
0
 62
     7
100
AcDb2dPolyline
 66
     1
 10
0.0
 20
0.0
 30
0.0
 70
     1
  0
VERTEX
  5
33
100
AcDbEntity
  8
0
 62
     7
100
AcDbVertex
100
AcDb2dVertex
 10
72.054
 20
22.553318
 30
0.0
  0
VERTEX
  5
34
100
AcDbEntity
  8
0
 62
     7
100
AcDbVertex
100
AcDb2dVertex
 10
68.006013
 20
22.553318
 30
0.0
  0
VERTEX
  5
35
100
AcDbEntity
  8
0
 62
     7
100
AcDbVertex
100
AcDb2dVertex
 10
68.006013
 20
23.194794
 30
0.0
  0
VERTEX
  5
36
100
AcDbEntity
  8
0
 62
     7
100
AcDbVertex
100
AcDb2dVertex
 10
72.054
 20
23.194794
 30
0.0
  0
SEQEND
  5
37
100
AcDbEntity
  8
0
 62
     7
  0
MTEXT
  5
31
100
AcDbEntity
  8
0
 62
     7
100
AcDbMText
 10
68.269735
 20
24.539682
 30
0.0
 40
0.782648
 41
0.0
 71
     1
 72
     2
  1
\fMS Mincho|b0|i0|c128;5×20mm
  7
KANJISTD
210
0.0
220
0.0
230
1.0
 11
1.000001
 21
0.0
 31
0.0
 73
     1
 44
1.0
  0
MTEXT
  5
30
100
AcDbEntity
  8
0
 62
     7
100
AcDbMText
 10
68.88589
 20
21.959683
 30
0.0
 40
0.848138
 41
0.0
 71
     1
 72
     2
  1
\fMS Mincho|b0|i0|c128;FUSE
  7
STD
210
0.0
220
0.0
230
1.0
 11
1.000001
 21
0.0
 31
0.0
 73
     1
 44
1.0
  0
MTEXT
  5
2F
100
AcDbEntity
  8
0
 62
     7
100
AcDbMText
 10
164.805789
 20
20.906717
 30
0.0
 40
1.571463
 41
0.0
 71
     1
 72
     2
  1
\fMS Mincho|b0|i0|c128;OUT
  7
STD
210
0.0
220
0.0
230
1.0
 11
1.000001
 21
0.0
 31
0.0
 73
     1
 44
1.0
  0
MTEXT
  5
2E
100
AcDbEntity
  8
0
 62
     7
100
AcDbMText
 10
151.276554
 20
20.906717
 30
0.0
 40
1.571463
 41
0.0
 71
     1
 72
     2
  1
\fMS Mincho|b0|i0|c128;OUT
  7
STD
210
0.0
220
0.0
230
1.0
 11
1.000001
 21
0.0
 31
0.0
 73
     1
 44
1.0
  0
MTEXT
  5
2D
100
AcDbEntity
  8
0
 62
     7
100
AcDbMText
 10
137.38214
 20
20.906717
 30
0.0
 40
1.571463
 41
0.0
 71
     1
 72
     2
  1
\fMS Mincho|b0|i0|c128;OUT
  7
STD
210
0.0
220
0.0
230
1.0
 11
1.000001
 21
0.0
 31
0.0
 73
     1
 44
1.0
  0
MTEXT
  5
2C
100
AcDbEntity
  8
0
 62
     7
100
AcDbMText
 10
123.85325
 20
20.906717
 30
0.0
 40
1.571463
 41
0.0
 71
     1
 72
     2
  1
\fMS Mincho|b0|i0|c128;OUT
  7
STD
210
0.0
220
0.0
230
1.0
 11
1.000001
 21
0.0
 31
0.0
 73
     1
 44
1.0
  0
MTEXT
  5
2B
100
AcDbEntity
  8
0
 62
     7
100
AcDbMText
 10
110.32436
 20
20.906717
 30
0.0
 40
1.571463
 41
0.0
 71
     1
 72
     2
  1
\fMS Mincho|b0|i0|c128;OUT
  7
STD
210
0.0
220
0.0
230
1.0
 11
1.000001
 21
0.0
 31
0.0
 73
     1
 44
1.0
  0
MTEXT
  5
2A
100
AcDbEntity
  8
0
 62
     7
100
AcDbMText
 10
96.795298
 20
20.906717
 30
0.0
 40
1.571463
 41
0.0
 71
     1
 72
     2
  1
\fMS Mincho|b0|i0|c128;OUT
  7
STD
210
0.0
220
0.0
230
1.0
 11
1.000001
 21
0.0
 31
0.0
 73
     1
 44
1.0
  0
ENDSEC
  0
SECTION
  2
OBJECTS
  0
DICTIONARY
  5
19
100
AcDbDictionary
280
     0
281
     1
  3
ACAD_GROUP
350
1A
  3
ACAD_MLINESTYLE
350
1B
  3
ACAD_LAYOUT
350
1E
  3
ACAD_PLOTSETTINGS
350
22
  3
ACAD_PLOTSTYLENAME
350
1F
  3
ACAD_WIPEOUT_VARS
350
23
  0
DICTIONARY
  5
1A
102
{ACAD_REACTORS
330
19
102
}
100
AcDbDictionary
280
     0
281
     1
  0
DICTIONARY
  5
1B
102
{ACAD_REACTORS
330
19
102
}
100
AcDbDictionary
280
     0
281
     1
  3
Standard
350
1C
  0
MLINESTYLE
  5
1C
102
{ACAD_REACTORS
330
1B
102
}
100
AcDbMlineStyle
  2
Standard
 70
     0
  3

 62
     0
 51
90.0
 52
90.0
 71
     2
 49
0.5
 62
   256
  6
BYLAYER
 49
-0.5
 62
   256
  6
BYLAYER
  0
ACDBDICTIONARYWDFLT
  5
1F
102
{ACAD_REACTORS
330
19
102
}
100
AcDbDictionary
281
     1
  3
Normal
350
1D
100
AcDbDictionaryWithDefault
340
1D
  0
ACDBPLACEHOLDER
  5
1D
102
{ACAD_REACTORS
330
1F
102
}
  0
LAYOUT
  5
20
102
{ACAD_REACTORS
330
1E
102
}
100
AcDbPlotSettings
  1

  2

  4

  6

 40
0.0
 41
0.0
 42
0.0
 43
0.0
 44
0.0
 45
0.0
 46
0.0
 47
0.0
 48
0.0
 49
0.0
140
0.0
141
0.0
142
1.0
143
1.0
 70
  1024
 72
     0
 73
     0
 74
     0
  7

 75
     0
147
1.0
148
0.0
149
0.0
100
AcDbLayout
  1
Model
 70
     0
 71
     0
 10
0.0
 20
0.0
 11
0.0
 21
0.0
 12
0.0
 22
0.0
 32
0.0
 14
0.0
 24
0.0
 34
0.0
 15
0.0
 25
0.0
 35
0.0
146
0.0
 13
0.0
 23
0.0
 33
0.0
 16
0.0
 26
0.0
 36
0.0
 17
0.0
 27
0.0
 37
0.0
 76
     0
330
A
331
0
345
0
346
0
  0
LAYOUT
  5
21
102
{ACAD_REACTORS
330
1E
102
}
100
AcDbPlotSettings
  1

  2

  4

  6

 40
0.0
 41
0.0
 42
0.0
 43
0.0
 44
0.0
 45
0.0
 46
0.0
 47
0.0
 48
0.0
 49
0.0
140
0.0
141
0.0
142
1.0
143
1.0
 70
     0
 72
     0
 73
     0
 74
     0
  7

 75
     0
147
1.0
148
0.0
149
0.0
100
AcDbLayout
  1
Layout1
 70
     0
 71
     0
 10
0.0
 20
0.0
 11
0.0
 21
0.0
 12
0.0
 22
0.0
 32
0.0
 14
0.0
 24
0.0
 34
0.0
 15
0.0
 25
0.0
 35
0.0
146
0.0
 13
0.0
 23
0.0
 33
0.0
 16
0.0
 26
0.0
 36
0.0
 17
0.0
 27
0.0
 37
0.0
 76
     0
330
B
331
0
345
0
346
0
  0
DICTIONARY
  5
1E
102
{ACAD_REACTORS
330
19
102
}
100
AcDbDictionary
280
     0
281
     1
  3
Layout1
350
21
  3
Model
350
20
  0
DICTIONARY
  5
22
102
{ACAD_REACTORS
330
19
102
}
100
AcDbDictionary
280
     0
281
     1
  0
WIPEOUTVARIABLES
  5
23
100
AcDbWipeoutVariables
 70
     1
  0
ENDSEC
  0
EOF
